>
 >
Op 38 No 4

Op 38 No 4 Guitar Tabs

Napoleon Coste - Op 38 No 4 chords, tabs, tablatures, lyrics

Guitar lessons | Add/correct | Request | Top 50 tabs Artists:  A B C D E F G H I J K L M N O P Q R S T U V W X Y Z 0-9

Op 38 No 4 Guitar Tabs – Napoleon Coste

CD, Sheet music, Poster

Do you like Op 38 No 4? Share with your friends now
Tabs
Op 38 No 4 Andantino in D from 25 Etudes de Genre - Napoleon Coste (1805-1883)
******************************************************************************
version 1 - by Francisco Galera, similar to Hans Ritter Edition (Schott 1926)
version 2 - by David Iria, using Trinity Guildhall Grade 6 edition
******************************************************************************

Napoleon Coste, Andantino Op 38, No 4 in D

******************************************************************************
measure 8 - F# on 1st string, 2nd fret changed to 3rd string 11th fret
measure 27 - D on 2nd beat (2nd string 3rd fret) held not repeated
measure 35 - bottom note of first chord changed from C# to B
reformatted to a maximum of 80 characters per line
******************************************************************************

1  |    |      |    |      |    |         |       |        |       |
E|-2----2----|-5----5----|--------------|-2--------------|-2-------2----|
B|-3----3----|-3----3----|-3----3---5---|-3--------------|-3---2---3----|
G|-----------|-----------|-4------------|-2---1---2------|--------------|
D|-0----0----|-4----4----|-5------------|-------------4--|-0-------0----|
A|-----------|-----------|--------------|----------------|--------------|
E|-----------|-----------|--------------|----------------|--------------|

6  |       |   |       |         |         |         |    |       |     |
E|-5---4---5-|-------------0---|-2---10------------|-2----2---0-|------------|
B|-3-------3-|-3---2---3-------|-3------10---3-----|------------|-3-----3----|
G|-----------|-4-------3-------|-2---------11--2---|-2----3-----|-4--3--4----|
D|-4-------4-|-5-------5-------|-----------------4-|-0----------|------------|
A|-----------|-----------------|-------------------|------4-----|-2-----2--0-|
E|-----------|-----------------|-------------------|------------|------------|

11 |       |       |      |      |       |       |       |      |       |
E|-3---5---3---2-|-2------0----|-5-------5-----|-5---3--------|-2-------2--0-|
B|-3-------5-----|-3------2----|-3-------3-----|-3-------3--5-|-3-------2----|
G|-4-------4-----|-2--1---2--0-|-----6-------5-|-4-------3----|-2---1---0----|
D|---------------|-------------|-4-------4-----|-5-------5----|--------------|
A|---------------|-0-----------|---------------|--------------|---------0----|
E|-3-------0-----|-------------|---------------|--------------|--------------|

16 |      |         |   |      |    |      |  |     |     |     |    |
E|------------2-5-|-10--9--7-|-5--------|-10--9-7-|-5---------|-5----7------|
B|-3--------3-----|-7---8----|-7--------|-7---8---|-7---------|-7----7--10--|
G|--------2-------|-7---7----|----6-7-6-|-7---7---|----6--7-6-|-5----8------|
D|-4----4---------|-0---0----|-0--------|-0---0---|-0---------|-------------|
A|-5--5-----------|----------|----------|---------|-----------|-6-----------|
E|----------------|----------|----------|---------|-----------|------7------|

             3       3
22 |      |.....  .......   |   |      |     |                  |     |     
E|--------12-10-9---------|-3---5--3-|-3--2--10--9-7----------|-------------|
B|-10--9--9-------12-10-9-|-5---2----|-3-----7-------10-8-7---|-3-----3--4--|
G|-9------9---------------|-3---2----|-2-----7--------------9-|-4-----4--5--|
D|------------------------|----------|-0-----0----------------|-4-----4--4--|
A|-7----------------------|-4---0----|------------------------|-2--1--2--0--|
E|--------0---------------|----------|------------------------|-------------|

26 |       |               |       |             |       |
E|-0---2---3-5-3-2-3--7--|---------------------|-0--------------||
B|-0-------0-------------|-3-3---3-3=====2-0-2-|-2-------3------||
G|-0-------0-------------|-2---1---0-----------|-0--------------||
D|-----------------------|-4---3---2-----------|-0-------4------||
A|-----------------------|-0-------0-----------|-----0---5------||
E|-3-------0-------------|---------------------|----------------||

******************************************************************************
******************************************************************************

Napoleon Coste, Andantino Op.38, No.4 in D

1  |    |      |    |      |    |         |       |        |       |
E|-2----2----|-5----5----|----------0---|-2--------------|-2-------2----|
B|-3----3----|-3----3----|-3----3-------|-3--------------|-3---2---3----|
G|-----------|-----------|-4------------|-2---1---2------|--------------|
D|-0----0----|-4----4----|-5------------|-------------4--|-0-------0----|
A|-----------|-----------|--------------|----------------|--------------|
E|-----------|-----------|--------------|----------------|--------------|

                       C3        C7
6  |       |   |       |         |         |         |    |       |     |
E|-5---4---5-|-----------------|-----10------------|-2----2-----|------------|
B|-3-------3-|-3---2---3---5---|-7------10-7-3-----|----------5-|-3-----3----|
G|-----------|-4-------3-------|-7-------------2---|-2----3-----|-4--3--4----|
D|-4-------4-|-5-------5-------|-7---------------4-|-0----------|------------|
A|-----------|-----------------|-------------------|------4-----|-2-----2--0-|
E|-----------|-----------------|-------------------|------------|------------|

   C3======                                   1/2C3===========
11 |       |       |      |      |       |       |       |      |       |
E|-3---5---3---2-|-2------0----|-5-------5-----|-5---3--------|-2-------2--0-|
B|-3-------0-----|-3------2----|-3---2---3-----|-3-------3--5-|-3-------2----|
G|-4-------0-----|-2--1---2--0-|-------------5-|-4-------3----|-2---1---0----|
D|---------------|-------------|-4-------4-----|-5-------5----|--------------|
A|---------------|-0-----------|---------------|--------------|---------0----|
E|-3-------0-----|-------------|---------------|--------------|--------------|

   C2=========== 1/2C7=======  C5========                    1/2C5   C7====
16 |      |         |   |      |    |      |  |     |     |     |    |
E|------------2-5-|-10--9--7-|-5--------|-10--9-7-|-5---------|-5----7-----|
B|-3--------3-----|-7---8----|-7--------|-7---8---|-7---------|-7----7--10-|
G|--------2-------|-7---7----|-7--6-7-6-|-7---7---|-7--6--7-6-|-5----8-----|
D|-4----4---------|-0---0----|-0--------|-0---0---|-0---------|------------|
A|-5--5-----------|----------|----------|---------|-----------|-6----------|
E|----------------|----------|----------|---------|-----------|------7-----|

  ======= C9 3       3    /2C3  C2========1/2C7=======
22 |      |...... .......   |   |      |     |                  |     |      
E|--------12-10-9---------|-3---5--3-|-3--2--10-9--7----------|-------------|
B|-10--9--9-------12-10-9-|-5---2----|-3-----7-------10-8-7---|-3-----3--4--|
G|-9------9---------------|-3---2----|-2-----7--------------9-|-4-----4--5--|
D|------------------------|----------|-0-----0----------------|-4-----4--4--|
A|-7----------------------|-4---0----|------------------------|-2--1--2--0--|
E|--------0---------------|----------|------------------------|-------------|
 
26 |       |               |       |             |       |
E|-0---2---3-5-3-2-3--7--|---------------------|-0--------------||
B|-0-------0-------------|-3-3---3-3-----2-0-2-|-2-------3------||
G|-0-------0-------------|-2---1---0-----------|-0--------------||
D|-----------------------|-4---3---2-----------|-0-------4------||
A|-----------------------|-0-------0-----------|-----0---5------||
E|-3-------0-------------|---------------------|----------------||

******************************************************************************
******************************************************************************





Comments


Popular Napoleon Coste tabs & chords
Barcarolle Tabs
Mthode Complte Pour La Guitare Par Ferdinand Sor - No 18 Tabs
Mthode Complte Pour La Guitare Par Ferdinand Sor - Nos 1-15 Tabs
Op 38 No 7 Tabs
Op 51 No 1 - Barcarolle In A Tabs
Op 51 No 10 - Mlancolie In Em Tabs
Op 51 No 6 - Rondeau In E Tabs
Study 1 In C Major Tabs
Study 3 In C Major Tabs
Study In G Major Tabs


Song lyrics



↑ Back to top | Tablatures and chords are parodies/interpretations of the original songs. You may use it for private study, scholarship, research or language learning purposes only
© 2014 AZChords.com Contact us | Privacy policy | DMCA | Add/correct tabs | Request tabs | Top 50 tabs