>
 >
World Keeps Turning

World Keeps Turning Bass Tabs

Napalm Death - World Keeps Turning chords, tabs, tablatures, lyrics

Guitar lessons | Add/correct | Request | Top 50 tabs Artists:  A B C D E F G H I J K L M N O P Q R S T U V W X Y Z 0-9

World Keeps Turning Bass Tabs – Napalm Death

CD, Sheet music, Poster

Do you like World Keeps Turning? Share with your friends now
Bass TabsTabs
The world keeps turning                             
Napalm death
Shane Embury



     W                   S S S S S S S S S S S S S S S S  
G||-------------------|----------------------------------|
C||-------------------|----------------------------------|
G||-------------------|----------------------------------|
D||-------------------|--6-5-0-0-0-0-0-0-0-0-0-0-6-5-0-0-|


  S S S S S S S S S S S S S S S S    S S S S S S E  S S S S S S E   
----------------------------------|--------------------------------|
----------------------------------|--------------------------------|
----------------------------------|-------------------5-------5-2--|
--0-0-0-0-0-0-0-0-6-5-0-0-0-0-0-0-|--0-0-0-0-6-5-0--1---0-0-1------|


  S S S S S S S S S S S S S S S S    S S S S S S S S S S S S S S S S  
----------------------------------|----------------------------------|
----------------------------------|----------------------------------|
----------------------------------|----------------------------------|
--0-0-0-0-0-0-0-0-6-5-0-0-0-0-0-0-|--0-0-0-0-6-5-0-0-0-0-0-0-0-0-0-0-|


  S S S S S S S S S S S S S S S S    S S S S S S E   
----------------------------------|-----------------|
----------------------------------|------------3----|
----------------------------------|----5------------|
--6-5-0-0-0-0-0-0-0-0-0-0-6-5-0-0-|--1---0-0-3---0--|


  S S S S S S S S S S S S S S S S    S S S S S S S S S S S S S S S S  
----------------------------------|----------------------------------|
--6---5---4-4-----6---5---4---3---|--6---5---4-4-----6---5---4---3---|
----4---3-----1-1---4---3---2---1-|----4---3-----1-1---4---3---2---1-|
----------------------------------|----------------------------------|


  S S S S S S S S S S S S S S S S    S S S S S S S S S S S S S S S S  
----------------------------------|----------------------------------|
----------------------------------|----------------------------------|
--------------------------------4-|--------------------------------2-|
--0-0-0-0-0-0-0-0-0-0-0-0-0-0-3---|--0-0-0-0-0-0-0-0-0-0-0-0-0-0-1---|


  S S S S S S S S S S S S S S S S    S S S S S S S S S S S S S S E   
----------------------------------|---------------------------------|
--------------------------------6-|---------------------------------|
------------------------------5---|----------------------------2-1--|
--0-0-0-0-0-0-0-0-0-0-0-0-0-0-----|--0-0-0-0-0-0-0-0-0-0-0-0-3------|


  S S S S S S S S S S S S S S S S    S S S S S S S S S S S S S S S S  
----------------------------------|----------------------------------|
----------------------------------|----------------------------------|
--------------------------------4-|--------------------------------2-|
--0-0-0-0-0-0-0-0-0-0-0-0-0-0-3---|--0-0-0-0-0-0-0-0-0-0-0-0-0-0-1---|


  S S S S S S S S S S S S S S S S    S S S S S S S S S S S S S S E   
----------------------------------|---------------------------------|
--------------------------------6-|---------------------------------|
------------------------------5---|----------------------------2-1--|
--0-0-0-0-0-0-0-0-0-0-0-0-0-0-----|--0-0-0-0-0-0-0-0-0-0-0-0-3------|


  S S S S S S S S S S S S S S S S    S S S S S S S S S S S S S S S S  
----------------------------------|----------------------------------|
--6---5---4-4-----6---5---4---3---|--6---5---4-4-----6---5---4---3---|
----4---3-----1-1---4---3---2---1-|----4---3-----1-1---4---3---2---1-|
----------------------------------|----------------------------------|


  H        S S S S S S S S    E  S S S S S S S S S S S S S S  
---------------------------|---------------------------------|
---------------------------|-------------------6-------------|
-------------4---3---2-1---|-----------------5---3-----------|
-----------3---2---2-----2-|--1--0-0-0-0-0-0-------1-1-1-1-1-|


  E  S S S S S S S S S S S S S S    E  S S S S S S S S S S S S S S  
---------------------------------|---------------------------------|
-------------------6---5---4-3---|---------------------------------|
-----------------5---4---4-------|-------------------4-----------4-|
--1--0-0-0-0-0-0---------------2-|--1--0-0-0-0-0-0-3---1-1-1-1-3---|


  S S S S S S S S S S S S S S S S    S S S S S S S S S S S S S S S S  
----------------------------------|----------------------------------|
----------------------------------|----------------------------------|
----2-------------------2---------|--------2-----------------2-------|
--3---0-0-3-1-1-1-1-1-3---3-1-1-1-|--1-3-4---3-1-1-1-1-1-3-4---3-1-1-|


  E  S S S S S S S S S S S S S S    E  S S S S S S S S S S S S S S  
---------------------------------|---------------------------------|
-------------------6---5---4-3---|-------------------6-------------|
-----------------5---4---4-------|-----------------5---3-----------|
--1--0-0-0-0-0-0---------------2-|--1--0-0-0-0-0-0-------1-1-1-1-1-|


  E  S S S S S S S S S S S S S S    E  S S S S S S S S S S S S S S  
---------------------------------|---------------------------------|
-------------------6---5---4-3---|---------------------------------|
-----------------5---4---4-------|-------------------4-----------4-|
--1--0-0-0-0-0-0---------------2-|--1--0-0-0-0-0-0-3---1-1-1-1-3---|


  S S S S S S S S S S S S S S S S    S S S S S S S S S S S S S S S S  
----------------------------------|----------------------------------|
----------------------------------|----------------------------------|
----2-------------------2---------|--------2-----------------2-------|
--3---0-0-3-1-1-1-1-1-3---3-1-1-1-|--1-3-4---3-1-1-1-1-1-3-4---3-1-1-|


  S S S S S S S S S S S S S S S S    S S S S S S S S S S S S S S S S  
----------------------------------|----------------------------------|
--6---5---4-4-----6---5---4---3---|--6---5---4-4-----6---5---4---3---|
----4---3-----1-1---4---3---2---1-|----4---3-----1-1---4---3---2---1-|
----------------------------------|----------------------------------|


  220 bpm                                                               
  S       S E  S S E  S S S S S S S S    S S E  S S E  S S S S S S S S  
--------------------------------------|--------------------------------|
--------------------------------------|--------------------------------|
------------2------1------------------|------2------1------------------|
--0-------0----0-0----1-0-0-0-3-0-0-0-|--0-0----0-0----1-0-0-0-3-0-0-0-|


  S S E  S S E  S S S S S S S S    S S S S S S S S S S S S S S S S  
--------------------------------|----------------------------------|
--------------------------------|----------------------------------|
------2------1------------------|----------------------------------|
--0-0----0-0----1-0-0-0-3-0-0-0-|--3-4-4-4-4-4-4-4-3-4-4-4-4-4-4-4-|


  S S S S S S S S S S S S S S S S    S S S S S S S S S S S S S S S S  
----------------------------------|----------------------------------|
----------------------------------|----------------------------------|
----------------------------------|----------------------------------|
--1-2-2-2-2-2-2-2-1-2-2-2-2-2-2-2-|--3-4-4-4-4-4-4-4-3-4-4-4-4-4-4-4-|


  S S S S S S S S S S S S S S S S    S S E  S S E  S S S S S S S S  
----------------------------------|--------------------------------|
----------------------------------|--------------------------------|
----------------------------------|------2------1------------------|
--1-2-2-2-2-2-2-2-1-2-2-2-2-2-2-2-|--0-0----0-0----1-0-0-0-3-0-0-0-|


  S S E  S S E  S S S S S S S S    S S S S S S S S S S S S S S S S  
--------------------------------|----------------------------------|
--------------------------------|----------------------------------|
------2------1------------------|----------8-8---------------------|
--0-0----0-0----1-0-0-0-3-0-0-0-|--5-5-5-5-----6-6-5-5-5-5-5-5-5-5-|


  S S S S S S S S S S S S S S S S    S S S S S S S S S S S S S S S S  
----------------------------------|----------------------------------|
----------------------------------|----------------------------------|
----------6-6---------------------|----------8-8---------------------|
--3-3-3-3-----4-4-3-3-3-3-3-3-3-3-|--5-5-5-5-----6-6-5-5-5-5-5-5-5-5-|


  S S S S S S S S S S S S S S S S    S S S S S S S S S S S S S S S S  
----------------------------------|----------------------------------|
----------------------------------|----------------------------------|
----------6-6---------------------|--5-7---------5-7---------5-7-----|
--3-3-3-3-----4-4-3-3-3-3-3-3-3-3-|------5-5-5-5-----5-5-5-5-----5-5-|


  S S S S S S S S S S S S S S S S    S S S S S S S S S S S S S S S S  
----------------------------------|----------------------------------|
----------------------------------|----------------------------------|
--------5-7---------5-7-----------|--3-5---------3-5---------3-5-----|
--5-5-5-----5-5-5-5-----5-5-5-5-5-|------3-3-3-3-----3-3-3-3-----3-3-|


  S S S S S S S S S S S S S S S S    S S S S S S S S S S S S S S S S  
----------------------------------|----------------------------------|
----------------------------------|----------------------------------|
--------3-5---------3-5-----------|--5-7---------5-7---------5-7-----|
--3-3-3-----3-3-3-3-----3-3-3-3-3-|------5-5-5-5-----5-5-5-5-----5-5-|


  S S S S S S S S S S S S S S S S    S S S S S S S S S S S S S S S S  
----------------------------------|----------------------------------|
----------------------------------|----------------------------------|
--------5-7---------5-7-----------|--3-5---------3-5---------3-5-----|
--5-5-5-----5-5-5-5-----5-5-5-5-5-|------3-3-3-3-----3-3-3-3-----3-3-|


  S S S S S S S S S S S S S S S S    S S S S S S S S S S S S S S S S  
----------------------------------|----------------------------------|
----------------------------------|----------------------------------|
--------3-5---------3-5-----------|----------8-8---------------------|
--3-3-3-----3-3-3-3-----3-3-3-3-3-|--5-5-5-5-----6-6-5-5-5-5-5-5-5-5-|


  S S S S S S S S S S S S S S S S    S S S S S S S S S S S S S S S S  
----------------------------------|----------------------------------|
----------------------------------|----------------------------------|
----------6-6---------------------|----------8-8---------------------|
--3-3-3-3-----4-4-3-3-3-3-3-3-3-3-|--5-5-5-5-----6-6-5-5-5-5-5-5-5-5-|


  S S S S S S S S S S S S S S S S    S S S S S S S S S S S S S S S S  
----------------------------------|----------------------------------|
----------------------------------|----------------------------------|
----------6-6---------------------|----------------------------------|
--3-3-3-3-----4-4-3-3-3-3-3-3-3-3-|--6-5-0-0-0-0-0-0-0-0-0-0-6-5-0-0-|


  S S S S S S S S S S S S S S S S    S S S S S S E  S S S S S S E   
----------------------------------|--------------------------------|
----------------------------------|--------------------------------|
----------------------------------|-------------------5-------5-2--|
--0-0-0-0-0-0-0-0-6-5-0-0-0-0-0-0-|--0-0-0-0-6-5-0--1---0-0-1------|


  S S S S S S S S S S S S S S S S    S S S S S S S S S S S S S S S S  
----------------------------------|----------------------------------|
----------------------------------|----------------------------------|
----------------------------------|----------------------------------|
--0-0-0-0-0-0-0-0-6-5-0-0-0-0-0-0-|--0-0-0-0-6-5-0-0-0-0-0-0-0-0-0-0-|


  S S S S S S S S S S S S S S S S    S S S S S S E    
----------------------------------|-----------------||
----------------------------------|-----------------||
----------------------------------|----5-------3----||
--6-5-0-0-0-0-0-0-0-0-0-0-6-5-0-0-|--1---0-0-3------||




Duration Legend
---------------
W - whole
H - half
Q - quarter
E - 8th
S - 16th
T - 32nd
X - 64th
. - note dotted
|-n-|  - n-tuplets


Tablature Legend
----------------
L - tied note
x - dead note
g - grace note
(n) - ghost note
> - accentuded note
NH - natural harmonic
AH - artificial harmonic
TH - tapped harmonic
SH - semi harmonic
PH - pitch harmonic
h - hammer on
p - pull off
b - bend
br - bendRelease
pb - preBend
pbr - preBendRelease
brb - bendReleaseBend
\n/ - tremolo bar dip
\n - tremolo bar dive
-/n - tremolo bar Release up
/n\ - tremolo bar inverted dip
/n - tremolo bar return
-\n - tremolo bar Release down
S - shift slide
s - legato slide
/ -  slide into from below or out of upwards
\ -  slide into from above or out of downwards
~ - vibrato
W - wide vibrato
tr - trill
TP - tremolo picking
T - tapping
S - slap
P - pop
< - fade in
^ - brush up
v - brush down





Comments


Popular Napalm Death tabs & chords
You Suffer Bass Tabs
Aryanisms Tabs
Deceiver Tabs
If The Truth Be Known Tabs
In Regress Tabs
Lucid Fairytale Tabs
Morale Tabs
Reflect On Conflict Tabs
Scum 1 Tabs
Suffer The Children Tabs


Song lyrics



↑ Back to top | Tablatures and chords are parodies/interpretations of the original songs. You may use it for private study, scholarship, research or language learning purposes only
© 2014 AZChords.com Contact us | Privacy policy | DMCA | Add/correct tabs | Request tabs | Top 50 tabs