>
 >
World Keeps Turning

World Keeps Turning Guitar Tabs

Napalm Death - World Keeps Turning chords, tabs, tablatures, lyrics

Guitar lessons | Add/correct | Request | Top 50 tabs Artists:  A B C D E F G H I J K L M N O P Q R S T U V W X Y Z 0-9

World Keeps Turning Guitar Tabs – Napalm Death

CD, Sheet music, Poster

Do you like World Keeps Turning? Share with your friends now
Bass TabsTabs
The world keeps turning                             
Napalm death
Mitch Harris 



     W                   S  S S S S S S S S S S S S  S S S  
D||-------------------|------------------------------------|
A||-------------------|------------------------------------|
F||-------------------|------------------------------------|
C||-------------------|------------------------------------|
G||-------------------|--8s-7---------------------8s-7-----|
D||-------------------|--6s-5-0-0-0-0-0-0-0-0-0-0-6s-5-0-0-|


  S S S S S S S S S  S S S S S S S    S S S S S  S S S S  S S S S  S E   
-----------------------------------|------------------------------------|
-----------------------------------|------------------------------------|
-----------------------------------|------------------------------------|
-----------------------------------|------------------------------------|
------------------8s-7-------------|----------8s-7-----3s-5-----3s-5-2--|
--0-0-0-0-0-0-0-0-6s-5-0-0-0-0-0-0-|--0-0-0-0-6s-5-0-0-1s-3-0-0-1s-3-0--|


  S S S S S S S S S  S S S S S S S    S S S S S  S S S S S S S S S S S  
-----------------------------------|-----------------------------------|
-----------------------------------|-----------------------------------|
-----------------------------------|-----------------------------------|
-----------------------------------|-----------------------------------|
------------------8s-7-------------|----------8s-7---------------------|
--0-0-0-0-0-0-0-0-6s-5-0-0-0-0-0-0-|--0-0-0-0-6s-5-0-0-0-0-0-0-0-0-0-0-|


  S  S S S S S S S S S S S S  S S S    S  S S S S S S S  
------------------------------------|-------------------|
------------------------------------|-------------------|
------------------------------------|-------------------|
------------------------------------|-------------3-----|
--8s-7---------------------8s-7-----|--3s-5-----3-1-----|
--6s-5-0-0-0-0-0-0-0-0-0-0-6s-5-0-0-|--1s-3-0-0-1---0-0-|


    PM   PM           PM   PM              PM   PM           PM   PM          
  S S  S S  S S S S S S  S S  S S S S    S S  S S  S S S S S S  S S  S S S S  
--------------------------------------|--------------------------------------|
--------------------------------------|--------------------------------------|
--------------------------------------|--------------------------------------|
--6----5----4-4-3-3-6----5----4-4-3-3-|--6----5----4-4-3-3-6----5----4-4-3-3-|
--4----3----2-2-1-1-4----3----2-2-1-1-|--4----3----2-2-1-1-4----3----2-2-1-1-|
----0----0------------0----0----------|----0----0------------0----0----------|


  S S S S S S S S S S S S S S S S    S S S S S S S S S S S S S S S S  
----------------------------------|----------------------------------|
----------------------------------|----------------------------------|
----------------------------------|----------------------------------|
--------------------------------6-|--------------------------------4-|
------------------------------5-4-|------------------------------3-2-|
--0-0-0-0-0-0-0-0-0-0-0-0-0-0-3---|--0-0-0-0-0-0-0-0-0-0-0-0-0-0-1---|


  S S S S S S S S S S S S S S S S    S S S S S S S S S S S S S S  E   
----------------------------------|----------------------------------|
----------------------------------|----------------------------------|
----------------------------------|----------------------------------|
--------------------------------6-|----------------------------4s-3--|
------------------------------5-4-|--------------------------5-2s-1--|
--0-0-0-0-0-0-0-0-0-0-0-0-0-0-3---|--0-0-0-0-0-0-0-0-0-0-0-0-3-------|


  S S S S S S S S S S S S S S S S    S S S S S S S S S S S S S S S S  
----------------------------------|----------------------------------|
----------------------------------|----------------------------------|
----------------------------------|----------------------------------|
--------------------------------6-|--------------------------------4-|
------------------------------5-4-|------------------------------3-2-|
--0-0-0-0-0-0-0-0-0-0-0-0-0-0-3---|--0-0-0-0-0-0-0-0-0-0-0-0-0-0-1---|


  S S S S S S S S S S S S S S S S    S S S S S S S S S S S S S  S  E   
----------------------------------|-----------------------------------|
----------------------------------|-----------------------------------|
----------------------------------|-----------------------------------|
--------------------------------6-|--------------------------3s-4s-3--|
------------------------------5-4-|--------------------------1s-2s-1--|
--0-0-0-0-0-0-0-0-0-0-0-0-0-0-3---|--0-0-0-0-0-0-0-0-0-0-0-0----------|


    PM   PM           PM   PM              PM   PM           PM   PM          
  S S  S S  S S S S S S  S S  S S S S    S S  S S  S S S S S S  S S  S S S S  
--------------------------------------|--------------------------------------|
--------------------------------------|--------------------------------------|
--------------------------------------|--------------------------------------|
--6----5----4-4-3-3-6----5----4-4-3-3-|--6----5----4-4-3-3-6----5----4-4-3-3-|
--4----3----2-2-1-1-4----3----2-2-1-1-|--4----3----2-2-1-1-4----3----2-2-1-1-|
----0----0------------0----0----------|----0----0------------0----0----------|


  S T T T T T T T T T T T T T T S S S S S S S S  
------------------------------------------------|
------------------------------------------------|
------------------------------------------------|
----------------------------------6---5---4-3---|
--3-----------------------------5-4-4-3-4-2-1-4-|
--1-0-0-0-0-0-0-0-0-0-0-0-0-0-0-3---2---2-----2-|


  S T T T T T T T T T T T T T T S S S T T T T T T T T T T  
----------------------------------------------------------|
----------------------------------------------------------|
----------------------------------------------------------|
----------------------------------6-----------------------|
--3-----------------------------5-4-3---------------------|
--1-0-0-0-0-0-0-0-0-0-0-0-0-0-0-3---1-1-1-1-1-1-1-1-1-1-1-|


  S T T T T T T T T T T T T T T S S S S S S S S  
------------------------------------------------|
------------------------------------------------|
------------------------------------------------|
----------------------------------6---5---4-3---|
--3-----------------------------5-4-4-3-4-2-1-4-|
--1-0-0-0-0-0-0-0-0-0-0-0-0-0-0-3---2---2-----2-|


  S T T T T T T T T T T T T T T S S S T T T T T T S S  
------------------------------------------------------|
------------------------------------------------------|
------------------------------------------------------|
----------------------------------6-----------------6-|
--3-----------------------------5-4-3-------------5-4-|
--1-0-0-0-0-0-0-0-0-0-0-0-0-0-0-3---1-1-1-1-1-1-1-3---|


  S S T T T T T T T T T T T T T T T T T T T T T T T T T T T T  
--------------------------------------------------------------|
--------------------------------------------------------------|
--------------------------------------------------------------|
----4---------------------------------------------------------|
--5-2-2-2-2-2-----------------------------2-2-----------------|
--3-----------3-3-1-1-1-1-1-1-1-1-3-3-4-4-----3-3-1-1-1-1-1-1-|


  T T T T T T T T T T T T T T T T T T T T T T T T T T T T T T T T  
------------------------------------------------------------------|
------------------------------------------------------------------|
------------------------------------------------------------------|
------------------------------------------------------------------|
--------------2-2-----------------------------2-2-----------------|
--1-1-3-3-4-4-----3-3-1-1-1-1-1-1-1-1-3-3-4-4-----3-3-1-1-1-1-1-1-|


  S T T T T T T T T T T T T T T S S S S S S S S  
------------------------------------------------|
------------------------------------------------|
------------------------------------------------|
----------------------------------6---5---4-3---|
--3-----------------------------5-4-4-3-4-2-1-4-|
--1-0-0-0-0-0-0-0-0-0-0-0-0-0-0-3---2---2-----2-|


  S T T T T T T T T T T T T T T S S S T T T T T T T T T T  
----------------------------------------------------------|
----------------------------------------------------------|
----------------------------------------------------------|
----------------------------------6-----------------------|
--3-----------------------------5-4-3---------------------|
--1-0-0-0-0-0-0-0-0-0-0-0-0-0-0-3---1-1-1-1-1-1-1-1-1-1-1-|


  S T T T T T T T T T T T T T T S S S S S S S S  
------------------------------------------------|
------------------------------------------------|
------------------------------------------------|
----------------------------------6---5---4-3---|
--3-----------------------------5-4-4-3-4-2-1-4-|
--1-0-0-0-0-0-0-0-0-0-0-0-0-0-0-3---2---2-----2-|


  S T T T T T T T T T T T T T T S S S T T T T T T S S  
------------------------------------------------------|
------------------------------------------------------|
------------------------------------------------------|
----------------------------------6-----------------6-|
--3-----------------------------5-4-3-------------5-4-|
--1-0-0-0-0-0-0-0-0-0-0-0-0-0-0-3---1-1-1-1-1-1-1-3---|


  S S T T T T T T T T T T T T T T T T T T T T T T T T T T T T  
--------------------------------------------------------------|
--------------------------------------------------------------|
--------------------------------------------------------------|
----4---------------------------------------------------------|
--5-2-2-2-2-2-----------------------------2-2-----------------|
--3-----------3-3-1-1-1-1-1-1-1-1-3-3-4-4-----3-3-1-1-1-1-1-1-|


  T T T T T T T T T T T T T T T T T T T T T T T T T T T T T T T T  
------------------------------------------------------------------|
------------------------------------------------------------------|
------------------------------------------------------------------|
------------------------------------------------------------------|
--------------2-2-----------------------------2-2-----------------|
--1-1-3-3-4-4-----3-3-1-1-1-1-1-1-1-1-3-3-4-4-----3-3-1-1-1-1-1-1-|


    PM   PM           PM   PM              PM   PM           PM   PM          
  S S  S S  S S S S S S  S S  S S S S    S S  S S  S S S S S S  S S  S S S S  
--------------------------------------|--------------------------------------|
--------------------------------------|--------------------------------------|
--------------------------------------|--------------------------------------|
--6----5----4-4-3-3-6----5----4-4-3-3-|--6----5----4-4-3-3-6----5----4-4-3-3-|
--4----3----2-2-1-1-4----3----2-2-1-1-|--4----3----2-2-1-1-4----3----2-2-1-1-|
----0----0------------0----0----------|----0----0------------0----0----------|


  220 bpm                                                    
  T       T T T E  T T T T E  S T T T T T T T T T T T T T T  
------------------------------------------------------------|
------------------------------------------------------------|
------------------------------------------------------------|
----------------4----------3--------------------------------|
----------------2----------1--3-----------------------------|
--0-------0-0-0----0-0-0-0----1-0-0-0-0-0-0-3-0-0-0-0-0-0-0-|


  T T T T E  T T T T E  S T T T T T T T T T T T T T T  
------------------------------------------------------|
------------------------------------------------------|
------------------------------------------------------|
----------4----------3--------------------------------|
----------2----------1--3-----------------------------|
--0-0-0-0----0-0-0-0----1-0-0-0-0-0-0-3-0-0-0-0-0-0-0-|


  T T T T E  T T T T E  S T T T T T T T T T T T T T T  
------------------------------------------------------|
------------------------------------------------------|
------------------------------------------------------|
----------4----------3--------------------------------|
----------2----------1--3-----------------------------|
--0-0-0-0----0-0-0-0----1-0-0-0-0-0-0-3-0-0-0-0-0-0-0-|


  T T T T T T T T T T T T T T T T T T T T T T T T T T T T T T T T  
------------------------------------------------------------------|
------------------------------------------------------------------|
------------------------------------------------------------------|
------------------------------------------------------------------|
------------------------------------------------------------------|
--3-3-4-4-4-4-4-4-4-4-4-4-4-4-4-4-3-3-4-4-4-4-4-4-4-4-4-4-4-4-4-4-|


  T T T T T T T T T T T T T T T T T T T T T T T T T T T T T T T T  
------------------------------------------------------------------|
------------------------------------------------------------------|
------------------------------------------------------------------|
------------------------------------------------------------------|
------------------------------------------------------------------|
--1-1-2-2-2-2-2-2-2-2-2-2-2-2-2-2-1-1-2-2-2-2-2-2-2-2-2-2-2-2-2-2-|


  T T T T T T T T T T T T T T T T T T T T T T T T T T T T T T T T  
------------------------------------------------------------------|
------------------------------------------------------------------|
------------------------------------------------------------------|
------------------------------------------------------------------|
------------------------------------------------------------------|
--3-3-4-4-4-4-4-4-4-4-4-4-4-4-4-4-3-3-4-4-4-4-4-4-4-4-4-4-4-4-4-4-|


  T T T T T T T T T T T T T T T T T T T T T T T T T T T T T T T T  
------------------------------------------------------------------|
------------------------------------------------------------------|
------------------------------------------------------------------|
------------------------------------------------------------------|
------------------------------------------------------------------|
--1-1-2-2-2-2-2-2-2-2-2-2-2-2-2-2-1-1-2-2-2-2-2-2-2-2-2-2-2-2-2-2-|


  T T T T E  T T T T E  S T T T T T T T T T T T T T T  
------------------------------------------------------|
------------------------------------------------------|
------------------------------------------------------|
----------4----------3--------------------------------|
----------2----------1--3-----------------------------|
--0-0-0-0----0-0-0-0----1-0-0-0-0-0-0-3-0-0-0-0-0-0-0-|


  T T T T E  T T T T E  S T T T T T T T T T T T T T T  
------------------------------------------------------|
------------------------------------------------------|
------------------------------------------------------|
----------4----------3--------------------------------|
----------2----------1--3-----------------------------|
--0-0-0-0----0-0-0-0----1-0-0-0-0-0-0-3-0-0-0-0-0-0-0-|


  T T T T T T T T T T T T T T T T T T T T T T T T T T T T T T T T  
------------------------------------------------------------------|
------------------------------------------------------------------|
------------------------------------------------------------------|
------------------------------------------------------------------|
------------------8-8-8-8-----------------------------------------|
--5-5-5-5-5-5-5-5---------6-6-6-6-5-5-5-5-5-5-5-5-5-5-5-5-5-5-5-5-|


  T T T T T T T T T T T T T T T T T T T T T T T T T T T T T T T T  
------------------------------------------------------------------|
------------------------------------------------------------------|
------------------------------------------------------------------|
------------------------------------------------------------------|
------------------6-6-6-6-----------------------------------------|
--3-3-3-3-3-3-3-3---------4-4-4-4-3-3-3-3-3-3-3-3-3-3-3-3-3-3-3-3-|


  T T T T T T T T T T T T T T T T T T T T T T T T T T T T T T T T  
------------------------------------------------------------------|
------------------------------------------------------------------|
------------------------------------------------------------------|
------------------------------------------------------------------|
------------------8-8-8-8-----------------------------------------|
--5-5-5-5-5-5-5-5---------6-6-6-6-5-5-5-5-5-5-5-5-5-5-5-5-5-5-5-5-|


  T T T T T T T T T T T T T T T T T T T T T T T T T T T T T T T T  
------------------------------------------------------------------|
------------------------------------------------------------------|
------------------------------------------------------------------|
------------------------------------------------------------------|
------------------6-6-6-6-----------------------------------------|
--3-3-3-3-3-3-3-3---------4-4-4-4-3-3-3-3-3-3-3-3-3-3-3-3-3-3-3-3-|


       PM      PM      PM      PM      PM    
  S  S S  S  S S  S  S S  S  S S  S  S S  S  
--------------------------------------------|
--------------------------------------------|
--------------------------------------------|
--------------------------------------------|
--5h-7----5h-7----5h-7----5h-7----5h-7------|
-------5-------5-------5-------5-------5--5-|


       PM      PM      PM      PM      PM    
  S  S S  S  S S  S  S S  S  S S  S  S S  S  
--------------------------------------------|
--------------------------------------------|
--------------------------------------------|
--------------------------------------------|
--5h-7----5h-7----5h-7----5h-7----5h-7------|
-------5-------5-------5-------5-------5--5-|


       PM      PM      PM      PM           
  S  S S  S  S S  S  S S  S  S S  S  S S S  
-------------------------------------------|
-------------------------------------------|
-------------------------------------------|
-------------------------------------------|
--3h-5----3h-5----3h-5----3h-5----3h-5-----|
-------3-------3-------3-------3-------3-3-|


       PM      PM      PM      PM           
  S  S S  S  S S  S  S S  S  S S  S  S S S  
-------------------------------------------|
-------------------------------------------|
-------------------------------------------|
-------------------------------------------|
--3h-5----3h-5----3h-5----3h-5----3h-5-----|
-------3-------3-------3-------3-------3-3-|


       PM      PM      PM      PM      PM    
  S  S S  S  S S  S  S S  S  S S  S  S S  S  
--------------------------------------------|
--------------------------------------------|
--------------------------------------------|
--------------------------------------------|
--5h-7----5h-7----5h-7----5h-7----5h-7------|
-------5-------5-------5-------5-------5--5-|


       PM      PM      PM      PM      PM    
  S  S S  S  S S  S  S S  S  S S  S  S S  S  
--------------------------------------------|
--------------------------------------------|
--------------------------------------------|
--------------------------------------------|
--5h-7----5h-7----5h-7----5h-7----5h-7------|
-------5-------5-------5-------5-------5--5-|


       PM      PM      PM      PM           
  S  S S  S  S S  S  S S  S  S S  S  S S S  
-------------------------------------------|
-------------------------------------------|
-------------------------------------------|
-------------------------------------------|
--3h-5----3h-5----3h-5----3h-5----3h-5-----|
-------3-------3-------3-------3-------3-3-|


       PM      PM      PM      PM           
  S  S S  S  S S  S  S S  S  S S  S  S S S  
-------------------------------------------|
-------------------------------------------|
-------------------------------------------|
-------------------------------------------|
--3h-5----3h-5----3h-5----3h-5----3h-5-----|
-------3-------3-------3-------3-------3-3-|


  T T T T T T T T T T T T T T T T T T T T T T T T T T T T T T T T  
------------------------------------------------------------------|
------------------------------------------------------------------|
------------------------------------------------------------------|
------------------------------------------------------------------|
------------------8-8-8-8-----------------------------------------|
--5-5-5-5-5-5-5-5---------6-6-6-6-5-5-5-5-5-5-5-5-5-5-5-5-5-5-5-5-|


  T T T T T T T T T T T T T T T T T T T T T T T T T T T T T T T T  
------------------------------------------------------------------|
------------------------------------------------------------------|
------------------------------------------------------------------|
------------------------------------------------------------------|
------------------6-6-6-6-----------------------------------------|
--3-3-3-3-3-3-3-3---------4-4-4-4-3-3-3-3-3-3-3-3-3-3-3-3-3-3-3-3-|


  T T T T T T T T T T T T T T T T T T T T T T T T T T T T T T T T  
------------------------------------------------------------------|
------------------------------------------------------------------|
------------------------------------------------------------------|
------------------------------------------------------------------|
------------------8-8-8-8-----------------------------------------|
--5-5-5-5-5-5-5-5---------6-6-6-6-5-5-5-5-5-5-5-5-5-5-5-5-5-5-5-5-|


  T T T T T T T T T T T T T T T T T T T T T T T T T T T T T T T T  
------------------------------------------------------------------|
------------------------------------------------------------------|
------------------------------------------------------------------|
------------------------------------------------------------------|
------------------6-6-6-6-----------------------------------------|
--3-3-3-3-3-3-3-3---------4-4-4-4-3-3-3-3-3-3-3-3-3-3-3-3-3-3-3-3-|


  S  S S S S S S S S S S S S  S S S    S S S S S S S S S  S S S S S S S  
------------------------------------|-----------------------------------|
------------------------------------|-----------------------------------|
------------------------------------|-----------------------------------|
------------------------------------|-----------------------------------|
--8s-7---------------------8s-7-----|------------------8s-7-------------|
--6s-5-0-0-0-0-0-0-0-0-0-0-6s-5-0-0-|--0-0-0-0-0-0-0-0-6s-5-0-0-0-0-0-0-|


  S S S S S  S S S S  S S S S  S E     S S S S S S S S S  S S S S S S S  
------------------------------------|-----------------------------------|
------------------------------------|-----------------------------------|
------------------------------------|-----------------------------------|
------------------------------------|-----------------------------------|
----------8s-7-----3s-5-----3s-5-2--|------------------8s-7-------------|
--0-0-0-0-6s-5-0-0-1s-3-0-0-1s-3-0--|--0-0-0-0-0-0-0-0-6s-5-0-0-0-0-0-0-|


  S S S S S  S S S S S S S S S S S    S  S S S S S S S S S S S S  S S S  
-----------------------------------|------------------------------------|
-----------------------------------|------------------------------------|
-----------------------------------|------------------------------------|
-----------------------------------|------------------------------------|
----------8s-7---------------------|--8s-7---------------------8s-7-----|
--0-0-0-0-6s-5-0-0-0-0-0-0-0-0-0-0-|--6s-5-0-0-0-0-0-0-0-0-0-0-6s-5-0-0-|


  S  S S S S E  S   
------------------||
------------------||
------------------||
------------------||
--3s-5-----3-3----||
--1s-3-0-0-1------||




Duration Legend
---------------
W - whole
H - half
Q - quarter
E - 8th
S - 16th
T - 32nd
X - 64th
. - note dotted
|-n-|  - n-tuplets


Tablature Legend
----------------
L - tied note
x - dead note
g - grace note
(n) - ghost note
> - accentuded note
NH - natural harmonic
AH - artificial harmonic
TH - tapped harmonic
SH - semi harmonic
PH - pitch harmonic
h - hammer on
p - pull off
b - bend
br - bendRelease
pb - preBend
pbr - preBendRelease
brb - bendReleaseBend
\n/ - tremolo bar dip
\n - tremolo bar dive
-/n - tremolo bar Release up
/n\ - tremolo bar inverted dip
/n - tremolo bar return
-\n - tremolo bar Release down
S - shift slide
s - legato slide
/ -  slide into from below or out of upwards
\ -  slide into from above or out of downwards
~ - vibrato
W - wide vibrato
tr - trill
TP - tremolo picking
T - tapping
S - slap
P - pop
< - fade in
^ - brush up
v - brush down





Comments


Popular Napalm Death tabs & chords
Caught... In A Dream Bass Tabs
Nazi Punks Fuck Off 2 Bass Tabs
Identity Crisis Tabs
Inside The Torn Apart Tabs
Lowlife Tabs
Lowpoint Tabs
Next To Kin To Chaos Tabs
Reflect On Conflict Tabs
The Infiltraitor Tabs
Ulterior Exterior Tabs


Song lyrics



↑ Back to top | Tablatures and chords are parodies/interpretations of the original songs. You may use it for private study, scholarship, research or language learning purposes only
© 2014 AZChords.com Contact us | Privacy policy | DMCA | Add/correct tabs | Request tabs | Top 50 tabs