>
 >
On The Brink Of Extinction

On The Brink Of Extinction Guitar Tabs

Napalm Death - On The Brink Of Extinction chords, tabs, tablatures, lyrics

Guitar lessons | Add/correct | Request | Top 50 tabs Artists:  A B C D E F G H I J K L M N O P Q R S T U V W X Y Z 0-9

On The Brink Of Extinction Guitar Tabs – Napalm Death

CD, Sheet music, Poster

Do you like On The Brink Of Extinction? Share with your friends now
Bass TabsBass Tabs v2Tabs
Band: Napalm Death
Tuning: D Tuning

Intro

D|-------------------------------------------------------------|
A|-------------------------------------------------------------|
F|-------------------------------------------------------------|
C|-4---------------------------7-8-----------------------------|
G|-2-5-----------------8-7-4-5-5-6-----------------------------|
D|---3-0-0-000-0-0-0-0-6-5-2-3-----0-0-000-0-0-000-0-0-000-0-0-|
 |                                                               x2
D|-------------------------------------------------------------|
A|-------------------------------------------------------------|
F|-------------------------------------------------------------|
C|-4---------------------------8-7-------------8-7-7-7-8-7-7-7-|
G|-2-5-----------------8-7-4-5-6-5-------------6-5-5-5-6-5-5-5-|
D|---3-0-0-000-0-0-0-0-6-5-2-3-----0-0-000-0-0-----------------|

Verse 1

D|-------------------------------------------------------------|
A|-------------------------------------------------------------|
F|-------------------------------------------------------------|
C|-4---------------------------7-8-----------------------------|
G|-2-5-----------------8-7-4-5-5-6-----------------------------|
D|---3-0-0-000-0-0-0-0-6-5-2-3-----0-0-000-0-0-000-0-0-000-0-0-|

D|-------------------------------------------------------------|
A|-------------------------------------------------------------|
F|-------------------------------------------------------------|
C|-4---------------------------8-7-----------------------------|
G|-2-5-----------------8-7-4-5-6-5-----------------------------|
D|---3-0-0-000-0-0-0-0-6-5-2-3-----0-0-000-0-0-000-0-0-000-0-0-|

D|-------------------------------------------------------------|
A|-------------------------------------------------------------|
F|-------------------------------------------------------------|
C|-4---------------------------7-8-----------------------------|
G|-2-5-----------------8-7-4-5-5-6-----------------------------|
D|---3-0-0-000-0-0-0-0-6-5-2-3-----0-0-000-0-0-000-0-0-000-0-0-|

D|-------------------------------------------------------------|
A|-------------------------------------------------------------|
F|-------------------------------------------------------------|
C|-4---------------------------8-7-------------8-7-7-7-8-7-7-7-|
G|-2-5-----------------8-7-4-5-6-5-------------6-5-5-5-6-5-5-5-|
D|---3-0-0-000-0-0-0-0-6-5-2-3-----0-0-000-0-0-----------------|

Chorus

D|----------------|
A|--------------0-|
F|--------------0-| x4
C|----------------|
G|-9-----8-8-4----|
D|-7-0-0-6-6-2----|

D|-----------------------|
A|-----------------------|
F|-----------------------|
C|-----------------7-9-9-|
G|-9-----8-8-4-----5-7-7-|
D|-7-0-0-6-6-2-0-0-------|

D|-----------------------|
A|-----------------------|
F|-----------------------|
C|-----------------9-7-7-|
G|-9-----8-8-4-----7-5-5-|
D|-7-0-0-6-6-2-0-0-------|

D|-----------------------|
A|-----------------------|
F|-----------------------|
C|-----------------7-9-9-|
G|-9-----8-8-4-----5-7-7-|
D|-7-0-0-6-6-2-0-0-------|

D|-------------|
A|-------------|
F|-------------|
C|-------------|
G|-9-----8-8-4-|
D|-7-0-0-6-6-2-|

D|-------------------------------------------------------------|
A|-------------------------------------------------------------|
F|-------------------------------------------------------------|
C|-4---------------------------7-8-----------------------------|
G|-2-5-----------------8-7-4-5-5-6-----------------------------|
D|---3-0-0-000-0-0-0-0-6-5-2-3-----0-0-000-0-0-000-0-0-000-0-0-|

D|-------------------------------------------------------------|
A|-------------------------------------------------------------|
F|-------------------------------------------------------------|
C|-4---------------------------8-7-------------8-7-7-7-8-7-7-7-|
G|-2-5-----------------8-7-4-5-6-5-------------6-5-5-5-6-5-5-5-|
D|---3-0-0-000-0-0-0-0-6-5-2-3-----0-0-000-0-0-----------------|

Verse 2

D|-------------------------------------------------------------|
A|-------------------------------------------------------------|
F|-------------------------------------------------------------|
C|-4---------------------------7-8-----------------------------|
G|-2-5-----------------8-7-4-5-5-6-----------------------------|
D|---3-0-0-000-0-0-0-0-6-5-2-3-----0-0-000-0-0-000-0-0-000-0-0-|

D|-------------------------------------------------------------|
A|-------------------------------------------------------------|
F|-------------------------------------------------------------|
C|-4---------------------------8-7-----------------------------|
G|-2-5-----------------8-7-4-5-6-5-----------------------------|
D|---3-0-0-000-0-0-0-0-6-5-2-3-----0-0-000-0-0-000-0-0-000-0-0-|

D|-------------------------------------------------------------|
A|-------------------------------------------------------------|
F|-------------------------------------------------------------|
C|-4---------------------------7-8-----------------------------|
G|-2-5-----------------8-7-4-5-5-6-----------------------------|
D|---3-0-0-000-0-0-0-0-6-5-2-3-----0-0-000-0-0-000-0-0-000-0-0-|

D|-------------------------------------------------------------|
A|-------------------------------------------------------------|
F|-------------------------------------------------------------|
C|-4---------------------------8-7-------------8-7-7-7-8-7-7-7-|
G|-2-5-----------------8-7-4-5-6-5-------------6-5-5-5-6-5-5-5-|
D|---3-0-0-000-0-0-0-0-6-5-2-3-----0-0-000-0-0-----------------|

Chorus

D|----------------|
A|--------------0-|
F|--------------0-| x4
C|----------------|
G|-9-----8-8-4----|
D|-7-0-0-6-6-2----|

D|-----------------------|
A|-----------------------|
F|-----------------------|
C|-----------------7-9-9-|
G|-9-----8-8-4-----5-7-7-|
D|-7-0-0-6-6-2-0-0-------|

D|-----------------------|
A|-----------------------|
F|-----------------------|
C|-----------------9-7-7-|
G|-9-----8-8-4-----7-5-5-|
D|-7-0-0-6-6-2-0-0-------|

D|-----------------------|
A|-----------------------|
F|-----------------------|
C|-----------------7-9-9-|
G|-9-----8-8-4-----5-7-7-|
D|-7-0-0-6-6-2-0-0-------|

D|-------------|
A|-------------|
F|-------------|
C|-------------|
G|-9-----8-8-4-|
D|-7-0-0-6-6-2-|

Bridge

D|-------------------|---------------------------|
A|-------------------|---------------------------|
F|-------------------|---------------------------|
C|-------------------|---------------------------|
G|-------------------|---------------------------|
D|-2-0-0-3-0-0-5-0-6-|-2-0-0-3-0-0-5-0-6-0-5-0-6-|
 |                                                 x2
D|-------------------|---------------------------|
A|-------------------|---------------------------|
F|-------------------|---------------------------|
C|-------------------|---------------------------|
G|-------------------|---------------------------|
D|-2-0-0-3-0-0-5-0-6-|-2-0-0-3-0-0-5-0-6-0-5-0-3-|


D|-------------------|---------------------------|
A|-------------------|---------------------------|
F|-------------------|---------------------------|
C|-------------------|---------------------------|
G|-4-----5-----7---8-|-4-----5-----7---8---7---8-|
D|-2-0-0-3-0-0-5-0-6-|-2-0-0-3-0-0-5-0-6-0-5-0-6-|
 |                                                 x2
D|-------------------|---------------------------|
A|-------------------|---------------------------|
F|-------------------|---------------------------|
C|-------------------|---------------------------|
G|-4-----5-----7---8-|-4-----5-----7---8---7---5-|
D|-2-0-0-3-0-0-5-0-6-|-2-0-0-3-0-0-5-0-6-0-5-0-3-|

D|-------------------------|---------------------|
A|-------------------------|---------------------|
F|-------------------------|---------------------|
C|-------------------------|---------------------|
G|-8-7-5-8-7-5-8-7-5-4-4-4-|-8-7-5-8-7-5-8-7-5-4-|
D|-6-5-3-6-5-3-6-5-3-------|-6-5-3-6-5-3-6-5-3-2-|

Verse 3

D|-------------------------|---------------------|
A|-------------------------|---------------------|
F|-------------------------|---------------------| x2
C|-------------------------|---------------------|
G|-8-7-5-8-7-5-8-7-5-4-4-4-|-8-7-5-8-7-5-8-7-5-4-|
D|-6-5-3-6-5-3-6-5-3-------|-6-5-3-6-5-3-6-5-3-2-|

D|-----------------|-----------------|
A|-----------------|-----------------|
F|-----------------|-----------------|
C|---------------6-|---------------9-|
G|-4-5-7-8-4-5-7-4-|-4-5-7-8-4-5-7-7-|
D|-2-3-5-6-2-3-5---|-2-3-5-6-2-3-5---|
 |
D|-----------------|-----------------|
A|-----------------|-----------------|
F|-----------------|-----------------|
C|-----------------|---------------9-|
G|-4-5-7-8-4-5-7-5-|-4-5-7-8-4-5-7-7-|
D|-2-3-5-6-2-6-5-3-|-2-3-5-6-2-3-5---|

D|-------------------------|---------------------|
A|-------------------------|---------------------|
F|-------------------------|---------------------| x3
C|-------------------------|---------------------|
G|-8-7-5-8-7-5-8-7-5-4-4-4-|-8-7-5-8-7-5-8-7-5-4-|
D|-6-5-3-6-5-3-6-5-3-------|-6-5-3-6-5-3-6-5-3-2-|

D|-----------------|-----------------|
A|-----------------|-----------------|
F|-----------------|-----------------|
C|---------------6-|---------------9-|
G|-4-5-7-8-4-5-7-4-|-4-5-7-8-4-5-7-7-|
D|-2-3-5-6-2-3-5---|-2-3-5-6-2-3-5---|
 |
D|-----------------|-----------------|
A|-----------------|-----------------|
F|-----------------|-----------------|
C|-----------------|---------------9-|
G|-4-5-7-8-4-5-7-5-|-4-5-7-8-4-5-7-7-|
D|-2-3-5-6-2-6-5-3-|-2-3-5-6-2-3-5---|

Chorus

D|----------------|
A|--------------0-|
F|--------------0-| x4
C|----------------|
G|-9-----8-8-4----|
D|-7-0-0-6-6-2----|

D|-----------------------|
A|-----------------------|
F|-----------------------|
C|-----------------7-9-9-|
G|-9-----8-8-4-----5-7-7-|
D|-7-0-0-6-6-2-0-0-------|

D|-----------------------|
A|-----------------------|
F|-----------------------|
C|-----------------9-7-7-|
G|-9-----8-8-4-----7-5-5-|
D|-7-0-0-6-6-2-0-0-------|

D|-----------------------|
A|-----------------------|
F|-----------------------|
C|-----------------7-9-9-|
G|-9-----8-8-4-----5-7-7-|
D|-7-0-0-6-6-2-0-0-------|

D|-------------|
A|-------------|
F|-------------|
C|-------------|
G|-9-----8-8-4-|
D|-7-0-0-6-6-2-|





Comments


Popular Napalm Death tabs & chords
Nazi Punks Fuck Off 2 Bass Tabs
Vision Conquest Bass Tabs
World Keeps Turning Bass Tabs
You Suffer Bass Tabs
Aryanisms Tabs
Back From The Dead Tabs
If Symptoms Persist Tabs
Judicial Slime Tabs
Nultinational Corporations Tabs
Thanks For Nothing Tabs


Song lyrics



↑ Back to top | Tablatures and chords are parodies/interpretations of the original songs. You may use it for private study, scholarship, research or language learning purposes only
© 2014 AZChords.com Contact us | Privacy policy | DMCA | Add/correct tabs | Request tabs | Top 50 tabs