» » »

Napalm Death, On The Brink Of Extinction Bass tabs (ver.1)

Artists:  A B C D E F G H I J K L M N O P Q R S T U V W X Y Z # 

On The Brink Of Extinction Bass tabs (ver.1)

Napalm Death Tabs
 Rating:
4/5 (4 votes)
On The Brink Of Extinction lessons Tabs too difficult? Try these video lessons and learn fast
1
                Bassist: Shane Embury
Tuning: D Tuning

Intro

F|-------------------|------------------------------------|
C|-------------------|------------------------------------|
G|-2-------------5-6-|-2-------------6-5--6-5-5-5-6-5-5-5-|
D|---3---6-5-2-3-----|---3---6-5-2-3----------------------|

F|-------------------------------------------------------------|
C|-------------------------------------------------------------|
G|-2---------------------------5-6-----------------------------|
D|---3-0-0-000-0-0-0-0-6-5-2-3-----0-0-000-0-0-000-0-0-000-0-0-|

F|-------------------------------------------------------------|
C|-------------------------------------------------------------|
G|-2---------------------------6-5-------------6-5-5-5-6-5-5-5-|
D|---3-0-0-000-0-0-0-0-6-5-2-3-----0-0-000-0-0-----------------|

Verse 1

F|-------------------------------------------------------------|
C|-------------------------------------------------------------|
G|-2---------------------------5-6-----------------------------|
D|---3-0-0-000-0-0-0-0-6-5-2-3-----0-0-000-0-0-000-0-0-000-0-0-|

F|-------------------------------------------------------------|
C|-------------------------------------------------------------|
G|-2---------------------------6-5-----------------------------|
D|---3-0-0-000-0-0-0-0-6-5-2-3-----0-0-000-0-0-000-0-0-000-0-0-|

F|-------------------------------------------------------------|
C|-------------------------------------------------------------|
G|-2---------------------------5-6-----------------------------|
D|---3-0-0-000-0-0-0-0-6-5-2-3-----0-0-000-0-0-000-0-0-000-0-0-|

F|-------------------------------------------------------------|
C|-------------------------------------------------------------|
G|-2---------------------------6-5-------------6-5-5-5-6-5-5-5-|
D|---3-0-0-000-0-0-0-0-6-5-2-3-----0-0-000-0-0-----------------|

Chorus

F|-------------------------|
C|-------------------------| x4
G|-------------------------|
D|-7-0-0-6-6-2-2-2-2-2-2-2-|

F|-----------------------|
C|-----------------------|
G|-----------------5-7-7-|
D|-7-0-0-6-6-2-0-0-------|

F|-----------------------|
C|-----------------------|
G|-----------------7-5-5-|
D|-7-0-0-6-6-2-0-0-------|

F|-----------------------|
C|-----------------------|
G|-----------------5-7-7-|
D|-7-0-0-6-6-2-0-0-------|

F|-------------|
C|-------------|
G|-------------|
D|-7-0-0-6-6-2-|

F|-------------------------------------------------------------|
C|-------------------------------------------------------------|
G|-2---------------------------5-6-----------------------------|
D|---3-0-0-000-0-0-0-0-6-5-2-3-----0-0-000-0-0-000-0-0-000-0-0-|

F|-------------------------------------------------------------|
C|-------------------------------------------------------------|
G|-2---------------------------6-5-------------6-5-5-5-6-5-5-5-|
D|---3-0-0-000-0-0-0-0-6-5-2-3-----0-0-000-0-0-----------------|

Verse 2

F|-------------------------------------------------------------|
C|-------------------------------------------------------------|
G|-2---------------------------5-6-----------------------------|
D|---3-0-0-000-0-0-0-0-6-5-2-3-----0-0-000-0-0-000-0-0-000-0-0-|

F|-------------------------------------------------------------|
C|-------------------------------------------------------------|
G|-2---------------------------6-5-----------------------------|
D|---3-0-0-000-0-0-0-0-6-5-2-3-----0-0-000-0-0-000-0-0-000-0-0-|

F|-------------------------------------------------------------|
C|-------------------------------------------------------------|
G|-2---------------------------5-6-----------------------------|
D|---3-0-0-000-0-0-0-0-6-5-2-3-----0-0-000-0-0-000-0-0-000-0-0-|

F|-------------------------------------------------------------|
C|-------------------------------------------------------------|
G|-2---------------------------6-5-------------6-5-5-5-6-5-5-5-|
D|---3-0-0-000-0-0-0-0-6-5-2-3-----0-0-000-0-0-----------------|

Chorus

F|-------------------------|
C|-------------------------| x4
G|-------------------------|
D|-7-0-0-6-6-2-2-2-2-2-2-2-|

F|-----------------------|
C|-----------------------|
G|-----------------5-7-7-|
D|-7-0-0-6-6-2-0-0-------|

F|-----------------------|
C|-----------------------|
G|-----------------7-5-5-|
D|-7-0-0-6-6-2-0-0-------|

F|-----------------------|
C|-----------------------|
G|-----------------5-7-7-|
D|-7-0-0-6-6-2-0-0-------|

F|-------------|
C|-------------|
G|-------------|
D|-7-0-0-6-6-2-|

Bridge

F|-------------------|---------------------------|
C|-------------------|---------------------------|
G|-------------------|---------------------------|
D|-2-0-0-3-0-0-5-0-6-|-2-0-0-3-0-0-5-0-6-0-5-0-6-|
 |                                                 x4
F|-------------------|---------------------------|
C|-------------------|---------------------------|
G|-------------------|---------------------------|
D|-2-0-0-3-0-0-5-0-6-|-2-0-0-3-0-0-5-0-6-0-5-0-3-|

F|-----|
C|-----|
G|-----|
D|-2-2-|

F|---------------------|
C|---------------------|
G|---------------------|
D|-6-5-3-6-5-3-6-5-3-2-|

Verse 3

F|-------------------------|---------------------|
C|-------------------------|---------------------| x2
G|-------------------4-4-4-|---------------------|
D|-6-5-3-6-5-3-6-5-3-------|-6-5-3-6-5-3-6-5-3-2-|

F|-----------------|-----------------|
C|-----------------|-----------------|
G|---------------4-|---------------7-|
D|-2-3-5-6-2-3-5---|-2-3-5-6-2-3-5---|

F|-----------------|-----------------|
C|-----------------|-----------------|
G|-----------------|---------------7-|
D|-2-3-5-6-2-6-5-3-|-2-3-5-6-2-3-5---|

F|-----|
C|-----|
G|-----|
D|-2-2-|

F|---------------------|
C|---------------------|
G|---------------------|
D|-6-5-3-6-5-3-6-5-3-2-|

F|-------------------------|---------------------|
C|-------------------------|---------------------| x2
G|-------------------4-4-4-|---------------------|
D|-6-5-3-6-5-3-6-5-3-------|-6-5-3-6-5-3-6-5-3-2-|

F|-----------------|-----------------|
C|-----------------|-----------------|
G|---------------4-|---------------7-|
D|-2-3-5-6-2-3-5---|-2-3-5-6-2-3-5---|

F|-----------------|-----------------|
C|-----------------|-----------------|
G|-----------------|---------------7-|
D|-2-3-5-6-2-6-5-3-|-2-3-5-6-2-3-5---|

Chorus

F|-------------------------|
C|-------------------------| x4
G|-------------------------|
D|-7-0-0-6-6-2-2-2-2-2-2-2-|

F|-----------------------|
C|-----------------------|
G|-----------------5-7-7-|
D|-7-0-0-6-6-2-0-0-------|

F|-----------------------|
C|-----------------------|
G|-----------------7-5-5-|
D|-7-0-0-6-6-2-0-0-------|

F|-----------------------|
C|-----------------------|
G|-----------------5-7-7-|
D|-7-0-0-6-6-2-0-0-------|

F|-------------|
C|-------------|
G|-------------|
D|-7-0-0-6-6-2-|
            
Submit corrections

comments powered by Disqus
↑ Back to top | Napalm Death Bass for On The Brink Of Extinction. Lyrics for acoustic guitar and electric guitar. 1 Tablatures and chords are parodies/interpretations of the original songs. You may use it for private study, scholarship, research or language learning purposes only