>
 >
Malicious Intent

Malicious Intent Bass Tabs

Napalm Death - Malicious Intent chords, tabs, tablatures, lyrics

Guitar lessons | Add/correct | Request | Top 50 tabs Artists:  A B C D E F G H I J K L M N O P Q R S T U V W X Y Z 0-9

Malicious Intent Bass Tabs – Napalm Death

CD, Sheet music, Poster

Do you like Malicious Intent? Share with your friends now
Bass TabsTabs
Malicious Intent                                 
Napalm Death
Shane Embury (Bass)



     E  E  E  E  E  E  Q       E  E  E  E  E  E  E  E   
F||-------------------------|--------------------------|
C||-------------------------|--------------------------|
G||--------------2----------|--1--1--1--1--1--1--1--1--|
D||--0-----0----------------|--------------------------|


  E  E  E  E  E  E  E  E     E  E  E  E  E  E  E  E   
--------------------------|--------------------------|
--------------------------|--------------------------|
--------------3--3--------|--------------------------|
--3--3--3--3--------1--1--|--0--0--1--1--0--0--1--1--|


  E  E  E  E  E  E  E  E     E  E  E  E  E  E  E  E   
--------------------------|--------------------------|
--------------------------|--1--1--1--1--1--1--1--1--|
--2--2--------1--1--------|--------------------------|
--------3--3--------1--1--|--------------------------|


  E  E  E  E  E   E  Q       E  E  E  E  E  E  E  E   
--------------------------|--------------------------|
--------------------------|--------------------------|
--1--1--1--1--------------|--------------------------|
--------------0h--3--3----|--0--0--1--1--0--0--1--1--|


  E  E  E  E  E  E  E  E     E  E  E  E  E  E  E  E   
--------------------------|--------------------------|
--------------------------|--------------------------|
--2--2--------1--1--------|--1--1--1--1--1--1--1--1--|
--------3--3--------1--1--|--------------------------|


  E  E  E  E  E  E  E  E     E  E  E  E  E  E  E  E   
--------------------------|--------------------------|
--------------------------|--------------------------|
--------------3--3--------|--------------------------|
--3--3--3--3--------1--1--|--0--0--1--1--0--0--1--1--|


  E  E  E  E  E  E  E  E     E  E  E  E  E  E  E  E   
--------------------------|--------------------------|
--------------------------|--1--1--1--1--1--1--1--1--|
--2--2--------1--1--------|--------------------------|
--------3--3--------1--1--|--------------------------|


  E  E  E  E  E   E  Q       E  E  E  E  E  E  E  E   
--------------------------|--------------------------|
--------------------------|--------------------------|
--1--1--1--1--------------|--------------------------|
--------------0h--3--3----|--0--0--1--1--0--0--1--1--|


  E  E  E  E  E  E  E  E     E  E  E  E  E  E  E  E   
--------------------------|--------------------------|
--------------------------|--------------------------|
--2--2--------1--1--------|--1--1--1--1--1--1--1--1--|
--------3--3--------1--1--|--------------------------|


  E  E  E  E  E  E  E  E     E  E  E  E  E  E  E  E   
--------------------------|--------------------------|
--------------------------|--------------------------|
--------------3--3--------|--------------------------|
--3--3--3--3--------1--1--|--0--0--1--1--0--0--1--1--|


  E  E  E  E  E  E  E  E     E  E  E  E  E  E  E  E   
--------------------------|--------------------------|
--------------------------|--1--1--1--1--1--1--1--1--|
--2--2--------1--1--------|--------------------------|
--------3--3--------1--1--|--------------------------|


  E  E  E  E  E   E  Q       E  E  E  E  E  E  E  E   
--------------------------|--------------------------|
--------------------------|--------------------------|
--1--1--1--1--------------|--------------------------|
--------------0h--3--3----|--0--0--1--1--0--0--1--1--|


  E  E  E  E  E  E  E  E     E  E  E  E  E  E  E  E   
--------------------------|--------------------------|
--------------------------|--------------------------|
--2--2--------1--1--------|--1--1--1--1--1--1--1--1--|
--------3--3--------1--1--|--------------------------|


  E  E  E  E  E  E  E  E     E  E  E  E  E  E  E  E   
--------------------------|--------------------------|
--------------------------|--------------------------|
--------------3--3--------|--------------------------|
--3--3--3--3--------1--1--|--0--0--1--1--0--0--1--1--|


  E  E  E  E  E  E  E  E     E  E  E  E  E  E  E  E   
--------------------------|--------------------------|
--------------------------|--1--1--1--1--1--1--1--1--|
--2--2--------1--1--------|--------------------------|
--------3--3--------1--1--|--------------------------|


  E  E  E  E  E   E  Q       E  E  E  E  E  E  E  E   
--------------------------|--------------------------|
--------------------------|--------------------------|
--1--1--1--1--------------|--------7--7--------------|
--------------0h--3--3----|--0--0--------7--7--7--7--|


  E  E  E  E  E  E  E  E     E  E  E  E  E  E  E  E   
--------------------------|--------------------------|
--------------------------|--------------------------|
--7--7--------------------|--------7--7--------------|
--------6--6--6--6--6--6--|--0--0--------7--7--7--7--|


              |----3----|                               
  E  E  E  E  Q    Q    Q       Q    E  E  E  E  E  E   
-----------------------------|-------------------------|
-----------------------------|-------------------------|
--------1--1--1--------------|-------7--7--------------|
--0--1-------------3----1----|--0----------7--7--7--7--|


  E  E  E  E  E  E  E  E     E  E  E  E  E  E  E  E   
--------------------------|--------------------------|
--------------------------|--------------------------|
--7--7--------------------|--------7--7--------------|
--------6--6--6--6--6--6--|--0--0--------7--7--7--7--|


              |----3----|                                
  E  E  E  E  Q    Q    Q       E  E  E  E  E  E  E  E   
-----------------------------|--------------------------|
-----------------------------|--------------------------|
--------1--1--1--------------|--------------------------|
--0--1-------------3----1----|--0--0--1--1--0--0--1--1--|


  E  E  E  E  E  E  E  E     E  E  E  E  E  E  E  E   
--------------------------|--------------------------|
--------------------------|--------------------------|
--2--2--------1--1--------|--1--1--1--1--1--1--1--1--|
--------3--3--------1--1--|--------------------------|


  E  E  E  E  E  E  E  E     E  E  E  E  E  E  E  E   
--------------------------|--------------------------|
--------------------------|--------------------------|
--------------3--3--------|--------------------------|
--3--3--3--3--------1--1--|--0--0--1--1--0--0--1--1--|


  E  E  E  E  E  E  E  E     E  E  E  E  E  E  E  E   
--------------------------|--------------------------|
--------------------------|--1--1--1--1--1--1--1--1--|
--2--2--------1--1--------|--------------------------|
--------3--3--------1--1--|--------------------------|


  E  E  E  E  E   E  Q       E  E  E  E  E  E  E  E   
--------------------------|--------------------------|
--------------------------|--------------------------|
--1--1--1--1--------------|--------------------------|
--------------0h--3--3----|--0--0--1--1--0--0--1--1--|


  E  E  E  E  E  E  E  E     E  E  E  E  E  E  E  E   
--------------------------|--------------------------|
--------------------------|--------------------------|
--2--2--------1--1--------|--1--1--1--1--1--1--1--1--|
--------3--3--------1--1--|--------------------------|


  E  E  E  E  E  E  E  E     E  E  E  E  E  E  E  E   
--------------------------|--------------------------|
--------------------------|--------------------------|
--------------3--3--------|--------------------------|
--3--3--3--3--------1--1--|--0--0--1--1--0--0--1--1--|


  E  E  E  E  E  E  E  E     E  E  E  E  E  E  E  E   
--------------------------|--------------------------|
--------------------------|--1--1--1--1--1--1--1--1--|
--2--2--------1--1--------|--------------------------|
--------3--3--------1--1--|--------------------------|


  E  E  E  E  E   E  Q       E  E  E  E  E  E  E  E   
--------------------------|--------------------------|
--------------------------|--------------------------|
--1--1--1--1--------------|--------7--7--------------|
--------------0h--3--3----|--0--0--------7--7--7--7--|


  E  E  E  E  E  E  E  E     E  E  E  E  E  E  E  E   
--------------------------|--------------------------|
--------------------------|--------------------------|
--7--7--------------------|--------7--7--------------|
--------6--6--6--6--6--6--|--0--0--------7--7--7--7--|


              |----3----|                               
  E  E  E  E  Q    Q    Q       Q    E  E  E  E  E  E   
-----------------------------|-------------------------|
-----------------------------|-------------------------|
--------1--1--1--------------|-------7--7--------------|
--0--1-------------3----1----|--0----------7--7--7--7--|


  E  E  E  E  E  E  E  E     E  E  E  E  E  E  E  E   
--------------------------|--------------------------|
--------------------------|--------------------------|
--7--7--------------------|--------7--7--------------|
--------6--6--6--6--6--6--|--0--0--------7--7--7--7--|


              |----3----|               |----3----|                          
  E  E  E  E  Q    Q    Q       Q    E  Q    Q    Q    E     E  H        E   
-----------------------------|----------------------------|-----------------|
-----------------------------|----------------------------|-----------------|
--------1--1--1--------------|----------1-----------------|-----------------|
--0--1-------------3----1----|--0------------3----1----0--|--L--------------|


  H        Q       H        Q       H        Q       E  S S E  E  E  E   
----------------|----------------|----------------|---------------------|
----------------|----------------|----------------|---------------------|
----------------|----------------|----------------|---------------4-----|
----------------|----------------|----------------|--0--0-0-0--3-----3--|


  E  S S E  E  S S E     E  S S E  E  E  E     E  S S E  E  S S E   
----------------------|---------------------|----------------------|
----------------------|---------------------|----------------------|
----------------------|---------------4-----|----------------------|
--1--1-1-1--4--4-4-4--|--0--0-0-0--3-----3--|--1--1-1-1--4--4-4-4--|


  E  S S E  E  E  E     E  S S E  E  S S E     E  S S E  E  E  E   
---------------------|----------------------|---------------------|
---------------------|----------------------|---------------------|
---------------4-----|----------------------|---------------4-----|
--0--0-0-0--3-----3--|--1--1-1-1--4--4-4-4--|--0--0-0-0--3-----3--|


  E  S S E  E  S S E     E  S S E  E  E  E     E  S S E  E  S S E   
----------------------|---------------------|----------------------|
----------------------|---------------------|----------------------|
----------------------|---------------4-----|----------------------|
--1--1-1-1--4--4-4-4--|--0--0-0-0--3-----3--|--1--1-1-1--4--4-4-4--|


  E  S S E  E  E  E     E  S S E  E  S S E     E  S S E  E  E  E   
---------------------|----------------------|---------------------|
---------------------|----------------------|---------------------|
---------------4-----|----------------------|---------------4-----|
--0--0-0-0--3-----3--|--1--1-1-1--4--4-4-4--|--0--0-0-0--3-----3--|


  E  S S E  E  S S E     E  S S E  E  E  E     E  S S E  E  S S E   
----------------------|---------------------|----------------------|
----------------------|---------------------|----------------------|
----------------------|---------------4-----|----------------------|
--1--1-1-1--4--4-4-4--|--0--0-0-0--3-----3--|--1--1-1-1--4--4-4-4--|


  E  E  E  E  E  E     E  E  E  E  E  E     E  E  E  E  E  E   
--------------------|--------------------|--------------------|
--------------------|--------------------|--------------------|
--------------------|--------------------|--------------------|
--3--0--0--1--0--0--|--3--0--0--1--0--0--|--3--0--0--1--0--0--|


  E  E  E  E  E  E     E  E  E  E  E  E     E  E  E  E  E  E   
--------------------|--------------------|--------------------|
--------------------|--------------------|--------------------|
-----------1--1--1--|--------------------|--------------------|
--3--3--3-----------|--3--0--0--1--0--0--|--3--0--0--1--0--0--|


  E  E  E  E  E  E     E  E  E  E  E  E     E  S S E  E  E  E   
--------------------|--------------------|---------------------|
--------------------|--------------------|---------------------|
--------------------|-----------1--1--1--|---------------4-----|
--3--0--0--1--0--0--|--3--3--3-----------|--0--0-0-0--3-----3--|


  E  S S E  E  S S E     E  S S E  E  E  E     E  S S E  E  S S E   
----------------------|---------------------|----------------------|
----------------------|---------------------|----------------------|
----------------------|---------------4-----|----------------------|
--1--1-1-1--4--4-4-4--|--0--0-0-0--3-----3--|--1--1-1-1--4--4-4-4--|


  E  S S E  E  E  E     E  S S E  E  S S E     E  S S E  E  E  E   
---------------------|----------------------|---------------------|
---------------------|----------------------|---------------------|
---------------4-----|----------------------|---------------4-----|
--0--0-0-0--3-----3--|--1--1-1-1--4--4-4-4--|--0--0-0-0--3-----3--|


  E  S S E  E  S S E     E  S S E  E  E  E     E  S S E  E  S S E   
----------------------|---------------------|----------------------|
----------------------|---------------------|----------------------|
----------------------|---------------4-----|----------------------|
--1--1-1-1--4--4-4-4--|--0--0-0-0--3-----3--|--1--1-1-1--4--4-4-4--|


  E  S S E  E  E  E     E  S S E  E  S S E     E  S S E  E  E  E   
---------------------|----------------------|---------------------|
---------------------|----------------------|---------------------|
---------------4-----|----------------------|---------------4-----|
--0--0-0-0--3-----3--|--1--1-1-1--4--4-4-4--|--0--0-0-0--3-----3--|


  E  S S E  E  S S E     E  S S E  E  E  E     E  S S E  E  S S E   
----------------------|---------------------|----------------------|
----------------------|---------------------|----------------------|
----------------------|---------------4-----|----------------------|
--1--1-1-1--4--4-4-4--|--0--0-0-0--3-----3--|--1--1-1-1--4--4-4-4--|


  E  E  E  E  E  E     E  E  E  E  E  E     E  E  E  E  E  E   
--------------------|--------------------|--------------------|
--------------------|--------------------|--------------------|
--------------------|--------------------|--------------------|
--3--0--0--1--0--0--|--3--0--0--1--0--0--|--3--0--0--1--0--0--|


  E  E  E  E  E  E     E  E  E  E  E  E     E  E  E  E  E  E   
--------------------|--------------------|--------------------|
--------------------|--------------------|--------------------|
-----------1--1--1--|--------------------|--------------------|
--3--3--3-----------|--3--0--0--1--0--0--|--3--0--0--1--0--0--|


  E  E  E  E  E  E     E  E  E  E  E  E     E  E  E  E  E  E   
--------------------|--------------------|--------------------|
--------------------|--------------------|--------------------|
--------------------|-----------1--1--1--|--------------------|
--3--0--0--1--0--0--|--3--3--3-----------|--3--0--0--1--0--0--|


  E  E  E  E  E  E     E  E  E  E  E  E     E  E  E  E  E  E   
--------------------|--------------------|--------------------|
--------------------|--------------------|--------------------|
--------------------|--------------------|-----------1--1--1--|
--3--0--0--1--0--0--|--3--0--0--1--0--0--|--3--3--3-----------|


  E  E  E  E  E  E     E  E  E  E  E  E     E  E  E  E  E  E     Q.     Q.      
--------------------|--------------------|--------------------|----------------|
--------------------|--------------------|--------------------|----------------|
--------------------|--------------------|--------------------|----------------|
--3--0--0--1--0--0--|--3--0--0--1--0--0--|--3--0--0--1--0--0--|--3------6------|


  E  S S E  S S S S S S E  S S    E  S S E  S S S S S S E  S S  
-------------------------------|-------------------------------|
-------------------------------|-------------------------------|
----------------5-6-5----------|----------------5-6-5----------|
--0--0-0-0--0-0-------6-8--6-5-|--1--1-1-1--1-1-------6-8--6-5-|


  E  S S E  S S S S S S E  S S    E  S S E  S S E  S S E  S S  
-------------------------------|------------------------------|
-------------------------------|------------------------------|
----------------5-6-5----------|-----------------------3------|
--4--4-4-4--4-4-------6-8--6-5-|--6--6-6-6--6-6-1--1-1----3-1-|


  E  S S E  S S S S S S E  S S    E  S S E  S S S S S S E  S S  
-------------------------------|-------------------------------|
-------------------------------|-------------------------------|
----------------5-6-5----------|----------------5-6-5----------|
--0--0-0-0--0-0-------6-8--6-5-|--1--1-1-1--1-1-------6-8--6-5-|


  E  S S E  S S S S S S E  S S    E  S S E  S S E  S S E  S S  
-------------------------------|------------------------------|
-------------------------------|------------------------------|
----------------5-6-5----------|-----------------------3------|
--4--4-4-4--4-4-------6-8--6-5-|--6--6-6-6--6-6-1--1-1----3-1-|


  Q    E  Q    E     H        Q       Q    E  Q    E     H        Q     
------------------|----------------|------------------|----------------|
------------------|----------------|------------------|----------------|
-------3-------1--|----------------|-------3-------1--|----------------|
--0-------4-------|--1--------3----|--0-------4-------|--3--------1----|


  Q    E  Q    E     H        Q       Q    E  Q    E     H           Q    Q     
------------------|----------------|------------------|-----------|------------|
------------------|----------------|------------------|-----------|------------|
-------3-------1--|----------------|-------3-------1--|-----------|------------|
--0-------4-------|--1--------3----|--0-------4-------|--3--------|--1----0----|


  H        Q       H        Q       Q    Q       H        Q     
----------------|----------------|------------|----------------|
----------------|----------------|------------|----------------|
----------------|----------------|------------|----------------|
----------------|----------------|--1----0----|----------------|


  H        Q       Q    Q       H        Q       H        Q       Q    Q     
----------------|------------|----------------|----------------|------------|
----------------|------------|----------------|----------------|------------|
----------------|------------|----------------|----------------|------------|
----------------|--1----0----|----------------|----------------|--1----0----|


  E  E  E  E  E  E     E  E  E  E  E  E     Q    Q     
--------------------|--------------------|------------|
--------------------|--------------------|------------|
--------------------|--------------------|------------|
--0-----0-----0-----|--0-----0-----0-----|--1----0----|


  S S S S S S S S S S S S    S S S S S S S S S S S S    Q    Q     
--------------------------|--------------------------|------------|
----------3-3-3-3-2-2-2-2-|--1-1-1-1-----------------|------------|
--2-2-2-2-----------------|----------2-2-2-2-1-1-1-1-|------------|
--------------------------|--------------------------|--1----0----|


  S S S S S S S S S S S S    S S S S S S S S S S S S    Q    Q     
--------------------------|--------------------------|------------|
----------3-3-3-3-2-2-2-2-|--1-1-1-1-----------------|------------|
--2-2-2-2-----------------|----------2-2-2-2-1-1-1-1-|------------|
--------------------------|--------------------------|--1----0----|


  S S S S S S S S S S S S    S S S S S S S S S S S S    Q    Q     
--------------------------|--------------------------|------------|
----------3-3-3-3-2-2-2-2-|--1-1-1-1-----------------|------------|
--2-2-2-2-----------------|----------2-2-2-2-1-1-1-1-|------------|
--------------------------|--------------------------|--1----0----|


  S S S S S S S S S S S S    S S S S S S S S S S S S Q     
--------------------------|-------------------------------|
----------3-3-3-3-2-2-2-2-|--1-1-1-1----------------------|
--2-2-2-2-----------------|----------2-2-2-2-1-1-1-1------|
--------------------------|--------------------------1----|


  E  E  E  E  E  E  E  E     E  E  E  E  E  E  E  E   
--------------------------|--------------------------|
--2--2--2--2--2--1--2--1--|--------------------------|
--------------------------|--2--2--2--2--2--1--2--1--|
--------------------------|--------------------------|


  E  E  E  E  E  E  E  E     E  E  E  E  E  E  E  E   
--------------------------|--------------------------|
--------------------------|--------------6--6--5--5--|
--------------------------|--3--3--------------------|
--1--1--1--1--1--1--1--1--|--------4--4--------------|


  E  E  E  E  E  E  E  E     E  E  E  E  E  E  E  E   
--------------------------|--------------------------|
--2--2--2--2--2--1--2--1--|--------------------------|
--------------------------|--2--2--2--2--2--1--2--1--|
--------------------------|--------------------------|


                             |----3----|    |----3----|     
  E  E  E  E  E  E  E  E     Q    Q    Q    Q    Q    Q     
--------------------------|--------------------------------|
--------------------------|--------------------------------|
--------------------------|--4----4----4-------------------|
--1--1--1--1--1--1--1--1--|-----------------3----3----3----|


  E  E  E  E  E  E  E  E     E  E  E  E  E  E  E  E   
--------------------------|--------------------------|
--2--2--2--2--2--1--2--1--|--------------------------|
--------------------------|--2--2--2--2--2--1--2--1--|
--------------------------|--------------------------|


  E  E  E  E  E  E  E  E     E  E  E  E  E  E  E  E   
--------------------------|--------------------------|
--------------------------|--------------6--6--5--5--|
--------------------------|--3--3--------------------|
--1--1--1--1--1--1--1--1--|--------4--4--------------|


  E  E  E  E  E  E  E  E     E  E  E  E  E  E  E  E   
--------------------------|--------------------------|
--2--2--2--2--2--1--2--1--|--------------------------|
--------------------------|--2--2--2--2--2--1--2--1--|
--------------------------|--------------------------|


                             |----3----|    |----3----|     
  E  E  E  E  E  E  E  E     Q    Q    Q    Q    Q    Q     
--------------------------|--------------------------------|
--------------------------|--------------------------------|
--------------------------|--4----4----4-------------------|
--1--1--1--1--1--1--1--1--|-----------------3----3----3----|


  E  E  E  E  E  E  E  E     E  E  E  E  E  E  E  E   
--------------------------|--------------------------|
--------------------------|--------------------------|
--------7--7--------------|--7--7--------------------|
--0--0--------7--7--7--7--|--------6--6--6--6--6--6--|


                                         |----3----|     
  E  E  E  E  E  E  E  E     E  E  E  E  Q    Q    Q     
--------------------------|-----------------------------|
--------------------------|-----------------------------|
--------7--7--------------|--------1--1--1--------------|
--0--0--------7--7--7--7--|--0--1-------------3----1----|


  Q    E  E  E  E  E  E     E  E  E  E  E  E  E  E     E  E  E  E  E  E  E  E   
-------------------------|--------------------------|--------------------------|
-------------------------|--------------------------|--------------------------|
-------7--7--------------|--7--7--------------------|--------7--7--------------|
--0----------7--7--7--7--|--------6--6--6--6--6--6--|--0--0--------7--7--7--7--|


              |----3----|               |----3----|                           
  E  E  E  E  Q    Q    Q       Q    E  Q    Q    Q    E     E  H        E    
-----------------------------|----------------------------|-----------------||
-----------------------------|----------------------------|-----------------||
--------1--1--1--------------|----------1-----------------|-----------------||
--0--1-------------3----1----|--0------------3----1----0--|--L--------------||




Duration Legend
---------------
W - whole
H - half
Q - quarter
E - 8th
S - 16th
T - 32nd
X - 64th
. - note dotted
|-n-|  - n-tuplets


Tablature Legend
----------------
L - tied note
x - dead note
g - grace note
(n) - ghost note
> - accentuded note
NH - natural harmonic
AH - artificial harmonic
TH - tapped harmonic
SH - semi harmonic
PH - pitch harmonic
h - hammer on
p - pull off
b - bend
br - bendRelease
pb - preBend
pbr - preBendRelease
brb - bendReleaseBend
\n/ - tremolo bar dip
\n - tremolo bar dive
-/n - tremolo bar Release up
/n\ - tremolo bar inverted dip
/n - tremolo bar return
-\n - tremolo bar Release down
S - shift slide
s - legato slide
/ -  slide into from below or out of upwards
\ -  slide into from above or out of downwards
~ - vibrato
W - wide vibrato
tr - trill
TP - tremolo picking
T - tapping
S - slap
P - pop
< - fade in
^ - brush up
v - brush down





Comments


Popular Napalm Death tabs & chords
Caught... In A Dream Bass Tabs
Greed Killing Bass Tabs
You Suffer Bass Tabs
Extremity Retained Tabs
Hung Tabs
Lowpoint Tabs
Placate, Sedate, Eradicate Tabs
Silence Is Deafening Tabs
Suffer Little Children 1 Tabs
The Lifeless Alarm Tabs


Song lyrics



↑ Back to top | Tablatures and chords are parodies/interpretations of the original songs. You may use it for private study, scholarship, research or language learning purposes only
© 2014 AZChords.com Contact us | Privacy policy | DMCA | Add/correct tabs | Request tabs | Top 50 tabs