>
 >
Malicious Intent

Malicious Intent Guitar Tabs

Napalm Death - Malicious Intent chords, tabs, tablatures, lyrics

Guitar lessons | Add/correct | Request | Top 50 tabs Artists:  A B C D E F G H I J K L M N O P Q R S T U V W X Y Z 0-9

Malicious Intent Guitar Tabs – Napalm Death

CD, Sheet music, Poster

Do you like Malicious Intent? Share with your friends now
Bass TabsTabs
          N A P A L M  D E A T H  -  M A L I C I O U S  I N T E N T
                     From the Album HARMONY CORRUPTION
                       Copyright 1990 EARACHE RECORDS

                           Version 1.0 - MAY '02


For Questions, Comments, Newest Version, or Corrections contact





.  - palm mute                  /  - slide up to
\  - slide down to              ~  - vibrato
"  - tremelo picking           ( ) - ghost note
b  - bend                       h  - hammer-on
fb - full bend (1 step)         p  - pull-off
hb - half bend (1/2 step)       r  - release a bend
t  - tapping                    ah - artificial harmonic

Tune Gtr to D

--MALICIOUS INTENT--

[Riff A]
[---------------------------|----------------------------]
[---------------------------|----------------------------]
[*--------------------------|---------------------------*]GTRS 1&2
[*--------------------------|---------------------------*]
[--2-2-3--------3-3-4-------|-3__4__3-------3------------]
[--0-0-1--------1-1-2-------|---h--p----4-------4--------]

[---------------------------|----------------------------]
[---------------------------|----------------------------]
[*--------------------------|---------------------------*]GTRS 1&2
[*--------------------------|---------------------------*]
[--2"--------------4__5__4--|----4-----------------------]
[------------4"------h--p---|-5-----5--3__4__3--0--4--3--]
                                         h  p   
[---------------------------|----------------------------]
[---------------------------|----------------------------]
[*--------------------------|---------------------------*]GTRS 1&2
[*--------------------------|-2"------------------------*]
[--5__6__5-----4__5__4------|-----------4"----1"---------]
[----h--p---6----h--p---5---|-----------------------3"---]


Play Riff A 3 times


[Riff B]
[-----------------------------|-------------------------------]
[-----------------------------|-------------------------------]
[*----------------------------|------------------------------*]GTRS 1&2
[*-------3"-------2"----------|----3"----------3-------------*]
[-----------2"-------1"-------|-------2"-------1--5--4--3-----]
[--1"----------------------1"-|-"-----------1"----3--2--1-----]

[-----------------------------|-------------------------------]
[-----------------------------|-------------------------------]
[*----------------------------|------------------------------*]GTRS 1&2
[*-------3"-------2"----------|----3"----------3-------------*]
[-----------2"-------1"-------|-------2"-------1--5--4--3-----]
[--1"----------------------1"-|-"-----------1"----3--2--1-----]


Play Riff A 2 times
Play Riff B 0.5 time


[Fill 1]
[-----------------------------|-------------------------------]
[-----------------------------|-------------------------------]
[*----------------------------|------------------------------*]GTRS 1&2
[*-------3"-------2"----------|----3"----------3-------------*]
[-----------2"-------1"-------|-------2"-------1--5--4--3-----]
[--1"----------------------1"-|-"-----------1"----3--2--1-----]
                                                        *
---GTRS 1&2---                                            
[-----------------------------]
[-----------------------------]
[*---------------------------*]
[*-3-------------------------*]
[--1----4----3----2-----------]
[-------2----1----0-----------]
                  *
               [GTR 2]

 __________
[* = Pause!]
[__________]


[Next]
[-----------------------------------------]
[-----------------------------------------]
[*---------------------------------------*]GTR 1
[*--------------6------------------------*]
[--2---------3--4--5--3--3-3-3--6--6-6-6--]
[--0--0-0-0--1-----3--1--1-1-1--4--4-4-4--]
      . . .

[-----------------------------------------]
[-----------------------------------------]
[*---------------------------------------*]GTR 2
[*---------------------------------------*]
[-----------------------------------------]
[-----------------------------------------]
                                      
[-----------------------------------------]
[-----------------------------------------]
[*---------------------------------------*]GTR 1
[*--------------6------------------------*]
[--2---------3--4--5--3--3--3--6--6--6----]
[--0--0-0-0--1-----3--1--1--1--4--4--4----]
      . . .

[-----------------------------------------]
[-----------------------------------------]
[*---------------------------------------*]GTR 2
[*---------------------------------------*]
[-----------------------------------------]
[------------------------------------x\---]
                                      sl


[Riff C]
[-----------------------------------------]
[-----------------------------------------]
[*---------------------------------------*]GTRS 1&2
[*--------------6------------------------*]
[--2---------3--4--5--3--3-3-3--6--6-6-6--]
[--0--0-0-0--1-----3--1--1-1-1--4--4-4-4--]
      . . .

[-----------------------------------------]
[-----------------------------------------]
[*---------------------------------------*]GTRS 1&2
[*--------------6------------------------*]
[--2---------3--4--5--3--3--3--6--6--6----]
[--0--0-0-0--1-----3--1--1--1--4--4--4----]
      . . .

[-----------------------------------------]
[-----------------------------------------]
[*---------------------------------------*]GTRS 1&2
[*--------------6------------------------*]
[--2---------3--4--5--3--3-3-3--6--6-6-6--]
[--0--0-0-0--1-----3--1--1-1-1--4--4-4-4--]
      . . .
[-----------------------------------------]
[-----------------------------------------]
[*---------------------------------------*]GTRS 1&2
[*--------------6-----------------6\5----*]
[--2---------3--4--5--3--3--3--5--4\3--6--]
[--0--0-0-0--1-----3--1--1--1--3---sl--4--]
      . . .


Play Riff C 1 time


[Riff D]
[-------------------------------|----------------------------------]
[-------------------------------|----------------------------------]
[*------------------------------|---------------------------------*]GTRS 1&2
[*------------------------------|---------------------------------*]
[--5--------3--------5--------3-|-------5--------3--------8"--11\--]
[--3--0--0--1--0--0--3--0--0--1-|-0--0--3--0--0--1--0--0-------sl--]
      .  .     .  .     .  .      .  .     .  .     .  .

[-------------------------------|----------------------------------]
[-------------------------------|----------------------------------]
[*------------------------------|---------------------------------*]GTRS 1&2
[*------------------------------|---------------------------------*]
[--5--------3--------5--------3-|-------5--------3--------8"--11\--]
[--3--0--0--1--0--0--3--0--0--1-|-0--0--3--0--0--1--0--0-------sl--]
      .  .     .  .     .  .      .  .     .  .     .  .


Play Riff C 2 times (over solo)


[Riff D.1] 
[-------------------------------|----------------------------------]
[-------------------------------|----------------------------------]
[*------------------------------|---------------------------------*]GTRS 1&2
[*------------------------------|---------------------------------*]
[--5--------3--------5--------3-|-------5--------3--------8"--11\--]
[--3--0--0--1--0--0--3--0--0--1-|-0--0--3--0--0--1--0--0-------sl--]
      .  .     .  .     .  .      .  .     .  .     .  .

[-------------------------------|----------------------------------]
[-------------------------------|----------------------------------]
[*------------------------------|---------------------------------*]GTRS 1&2
[*------------------------------|---------------------------------*]
[--5--------3--------5--------3-|-------5--------3-----------------]
[--3--0--0--1--0--0--3--0--0--1-|-0--0--3--0--0--1--0--0--3"--6"---]
      .  .     .  .     .  .      .  .     .  .     .  .


Play Riff D 0.5 time


[Fill 2]
[-------------------------------|----------------------------------]
[-------------------------------|----------------------------------]
[*------------------------------|---------------------------------*]GTRS 1&2
[*------------------------------|---------------------------------*]
[--5--------3--------5--------3-|-------5--------3--------5---8----]
[--3--0--0--1--0--0--3--0--0--1-|-0--0--3--0--0--1--0--0--3---6----]
      .  .     .  .     .  .      .  .     .  .     .  .


[Riff E]
[-------------------------------------------------]
[-------------------------------------------------]
[*-----------------------------------------------*]GTRS 1&2
[*-----------------------------------------------*]
[--2----------2----------6--5__6__5-----5---------]
[--0----0--0--0----0--0-------h--p---6-----6--0---]
        .  .       .  .                    .  .

[------------------------------------------------]
[------------------------------------------------]
[*----------------------------------------------*]GTRS 1&2
[*----------------------------------------------*]
[--3----------3----------6--5__6__5-----5--------]
[--1----1--1--1----0--0-------h--p---6-----6--0--]
        .  .       .  .                    .  .

[------------------------------------------------]
[------------------------------------------------]
[*----------------------------------------------*]GTRS 1&2
[*----------------------------------------------*]
[--6----------6----------6--5__6__5-----5--------]
[--4----4--4--4----4--4-------h--p---6-----6--0--]
        .  .       .  .                    .  .

[------------------------------------------------]
[------------------------------------------------]
[*----------------------------------------------*]GTRS 1&2
[*------------------------------3---------------*]
[--8----------8--------5--------1--1--1--3-------]
[--6----6--6--6--6--0--3--3--3-----------1--1--1-]
        .  .     .  .     .  .     .  .     .  .


Play Riff E 1 time


[Riff F]
[--------------------------|-------------------------]
[--------------------------|-------------------------]
[*-------------------------|------------------------*]GTRS 1&2
[*------6-------3----------|------6-------3---------*]
[--2----4--6----1--3----5--|-2----4--6----1--3----3--]
[--0-------4-------1----3--|-0-------4-------1----1--]

[--------------------------|-------------------------]
[--------------------------|-------------------------]
[*-------------------------|------------------------*]GTRS 1&2
[*------6-------3----------|------6-------3---------*]
[--2----4--6----1--3----5--|-2----4--6----1--3----3--]
[--0-------4-------1----3--|-0-------4-------1----1--]


[Next]
[----------------------------------|---------------------------------]
[----------------------------------|---------------------------------]
[*---------------------------------|--------------------------------*]GTR 1
[*-----4"--3"--2"------------------|-----4"--3"--2"-----------------*]
[--2"--------------2"--1"----------|-2"--------------2"--1"----------]
[--------------------------1"--0"--|-------------------------1"--0"--]

[----------------------------------|---------------------------------]
[----------------------------------|---------------------------------]
[*---------------------------------|--------------------------------*]GTR 2
[*---------------------------------|--------------------------------*]
[--2-----------------------3---2---|-------------------------3---2---]
[--0-----------------------1---0---|-------------------------1---0---]

[----------------------------------|---------------------------------]
[----------------------------------|---------------------------------]
[*---------------------------------|--------------------------------*]GTR 1
[*-----4"--3"--2"------------------|-----4"--3"--2"-----------------*]
[--2"--------------2"--1"----------|-2"--------------2"--1"----------]
[--------------------------1"--0"--|-------------------------1"--0"--]

[----------------------------------|---------------------------------]
[----------------------------------|---------------------------------]
[*---------------------------------|--------------------------------*]GTR 2
[*---------------------------------|--------------------------------*]
[--------------------------3---2---|-------------------------3---2---]
[--------------------------1---0---|-------------------------1---0---]


[Riff G]
[----------------------------------|---------------------------------]
[----------------------------------|---------------------------------]
[*---------------------------------|--------------------------------*]GTRS 1&2
[*-----4"--3"--2"------------------|-----4"--3"--2"-----------------*]
[--2"--------------2"--1"----------|-2"--------------2"--1"----------]
[--------------------------1"--0"--|-------------------------1"--0"--]

[----------------------------------|---------------------------------]
[----------------------------------|---------------------------------]
[*---------------------------------|--------------------------------*]GTRS 1&2
[*-----4"--3"--2"------------------|-----4"--3"--2"-----------------*]
[--2"--------------2"--1"----------|-2"--------------2"--1"----------]
[--------------------------1"--0"--|-------------------------1"--0"--]


[Riff H]
[-----------------------------------------------------------]
[-----------------------------------------------------------]
[*---------------------------------------------------------*]GTRS 1&2
[*-3"----------------------------------------------5"--4"--*]
[--------4__3--2"----------------4__3-----------------------]
[----------p---------4__3--1"------p---4"--3"--1"-----------]
                       p

[-----------------------------------------------------------]
[-----------------------------------------------------------]
[*---------------------------------------------------------*]GTRS 1&2
[*-3"----------------------------------------------6-------*]
[--------4__3--2"----------------4__3--------------4---5----]
[----------p---------4__3--1"------p---4"--3"--1"------3----]
                       p


Play Riff H 1 time


[Riff B.1]
[-----------------------------|-------------------------------]
[-----------------------------|-------------------------------]
[*----------------------------|------------------------------*]GTRS 1&2
[*-------3"-------2"----------|----3"----------3-------------*]
[-----------2"-------1"-------|-------2"-------1--5--4--3-----]
[--1"----------------------1"-|-"-----------1"----3--2--1-----]

[-----------------------------|-------------------------------]
[-----------------------------|-------------------------------]
[*----------------------------|------------------------------*]GTRS 1&2
[*-------3"-------2"----------|----3"----------3-------------*]
[-----------2"-------1"-------|-------2"-------1--5--4--3-----]
[--1"----------------------1"-|-"-----------1"----3--2--1-----]
                                                        * 
                                                     [Pause!]


[Final]
[--------------]
[--------------]
[*------------*]GTRS 1&2
[*-3----------*]
[--1--4--3--2--]
[-----2--1--0--]
            *
          [End!]





Comments


Popular Napalm Death tabs & chords
Malicious Intent Bass Tabs
Nazi Punks Fuck Off Bass Tabs
On The Brink Of Extinction Bass Tabs
Vision Conquest Bass Tabs
Abattoir Tabs
Losers Intro Tabs
Nazi Punks Off Tabs
Prison Without Walls Tabs
Success Tabs
World Keeps Turning Tabs


Song lyrics



↑ Back to top | Tablatures and chords are parodies/interpretations of the original songs. You may use it for private study, scholarship, research or language learning purposes only
© 2014 AZChords.com Contact us | Privacy policy | DMCA | Add/correct tabs | Request tabs | Top 50 tabs