» » »

Instinct Of Survival Tabs (ver.2)

Artists:  A B C D E F G H I J K L M N O P Q R S T U V W X Y Z # 

Instinct Of Survival Tabs (ver.2)

Napalm Death
Rating:
0/5 (0 votes)

Tabs too difficult? Try these video lessons and learn fast.
                #Unless specified otherwise, this is NOT an official tab from the band members.#

  
Napalm Death - Instinct of Survival (Scum)
Copyright Earache Records (1987)


Tuning: Down 1/2 Steps (Eb, Ab, Db, Gb, Bb, eb)

Key:
. = palm-mute
~ = vibrato
h = hammer-on
b = bend (in this song's case, between 1/4 and 1/2 step bend)

Note: This is Napalm Death.  This is grindcore, so it's rough.
Use it as a guide.
-=-=-=-=-=-=-=-=-=-=-=-=-=-=-=-=-=-=-=-=-=-=-=-=-=-=-=-=-=-=-=-=-=-=-=-=-=-=-=-=

Riff A x 2
|-----------------|-------|-----------------|----------|
|-----------------|-------|-----------------|----------|
|-----------------|-------|-----------------|----------|
|-----------------|-------|-----------------|----------|
|-----------------|-5--6--|-----------------|-8-8-8-7--|
|-0-0-0-0-0-0-0-0-|-3--4--|-0-0-0-0-0-0-0-0-|-6-6-6-5--|
  . . . . . . . .           . . . . . . . .
|-----------------|-------|-----------------|----------|
|-----------------|-------|-----------------|----------|
|-----------------|-------|-----------------|----------|
|-----------------|-------|-----------------|----------|
|-----------------|-5--6--|-----------------|-8-8-8----|
|-0-0-0-0-0-0-0-0-|-3--4--|-0-0-0-0-0-0-0-0-|-6-6-6-5~-|
  . . . . . . . .           . . . . . . . .

++Let last note ring through drum fill++

                   _________________  __________
Riff B x 1                     1,2,3|          4|
|-----------------|-----------------|-----------|
|-----------------|-----------------|-----------|
|-----------------|-----------------|-----------|
|-----------------|-----------------|-----------|
|-----------------|-----------------|-----------|
|-0-0-0-0-0-0-0-0-|-3h4-0-3h4-0-3h4-|-5h6-0-5~~-|
  . . . . . . . .       .     .           .
                   _________________  __________
                               1,2,3|          4|
|-----------------|-----------------|-----------|
|-----------------|-----------------|-----------|
|-----------------|-----------------|-----------|
|-----------------|-----------------|-----------|
|-----------------|-----------------|-----------|
|-0-0-0-0-0-0-0-0-|-5h6-0-5h6-0-5h6-|-5h6-0-7b~-|
  . . . . . . . .       .     .           .


Riff C x 8       Riff D x 4
|--------------| |----------------------|
|--------------| |----------------------|
|--------------| |----------------------|
|--------------| |----------------------|
|-77778888-----| |-10101010999933333333-|
|-55556666-2~~-| |--8-8-8-8777711111111-|

Riff C x 8
Riff D x 4
Riff B x 1

Riff E -> repeat until end
|------------|------------|------------|--------|
|------------|------------|------------|--------|
|------------|------------|------------|--------|
|------------|------------|------------|--------|
|---------3--|-------3--3-|---------3--|-5------|
|-0-0-0-0-1--|-0-0-0-1--1-|-0-0-0-0-1--|-3--2~~-|
  . . . .      . . .        . . . .
            
Tabs too difficult? Try these video lessons and learn fast.




comments powered by Disqus
↑ Back to top | Tablatures and chords are parodies/interpretations of the original songs. You may use it for private study, scholarship, research or language learning purposes only