>
 >
Greed Killing

Greed Killing Bass Tabs

Napalm Death - Greed Killing chords, tabs, tablatures, lyrics

Guitar lessons | Add/correct | Request | Top 50 tabs Artists:  A B C D E F G H I J K L M N O P Q R S T U V W X Y Z 0-9

Greed Killing Bass Tabs – Napalm Death

CD, Sheet music, Poster

Do you like Greed Killing? Share with your friends now
Bass TabsTabs
Greed Killing                                   
Napalm Death
Piste 2



               E  E  S E.  E  E  S E.     E  E  S E.  E  E  S E.   
F||-------||---------------------------|--------------------------|
C||-------||*--------------------------|--------------------------|
G||-------||*--7--7--7-7---7--7--7-7---|--5--5--5-5---5--5--5-5---|
D||-------||---------------------------|--------------------------|


  E  E  S E.  E  E  S E.     E  E  S E.  E  E  S E.     
--------------------------|---------------------------||
--------------------------|--------------------------*||
--7--7--7-7---7--7--7-7---|--5--5--5-5---5--5--5-5---*||
--------------------------|---------------------------||


   E  E  S E.  E  E  S E.     E  E  S E.  E  E  S E.   
---------------------------|--------------------------|
*--------------------------|--------------------------|
*--------------------------|--5--5--5-5---5--5--5-5---|
---1--0--0-0---0--0--0-0---|--------------------------|


  E  E  S E.  E  E  S E.     E  E  S E.  E  E  S E.     
--------------------------|---------------------------||
--------------------------|--------------------------*||
--------------------------|--5--5--5-5---5--5--5-5---*||
--1--0--0-0---0--0--0-0---|---------------------------||


   E  E  S E.  E  E  S E.     E  E  S E.  E  E  S E.   
---------------------------|--------------------------|
*--------------------------|--------------------------|
*--7--7--7-7---7--7--7-7---|--5--5--5-5---5--5--5-5---|
---------------------------|--------------------------|


  E  E  S E.  E  E  S E.     E  E  S E.  E  E  S E.     
--------------------------|---------------------------||
--------------------------|--------------------------*||
--7--7--7-7---7--7--7-7---|--5--5--5-5---5--5--5-5---*||
--------------------------|---------------------------||


   E  E  S E.  E  E  S E.     E  E  S E.  E  E  S E.   4x
---------------------------|---------------------------||
*--------------------------|--------------------------*||
*--------------------------|--5--5--5-5---5--5--5-5---*||
---1--0--0-0---0--0--0-0---|---------------------------||


   E  Q    E  Q    S S E     E  Q    E  Q    S S E     
--------------------------|--------------------------||
*-------------------------|-------------------------*||
*-------------------------|-------------------------*||
---0-------3-------6-0-6--|--0-------3-------6-0-6---||


   E.  E.  E.  E.  S S E     E.  E.  E.  E.  S S E     
--------------------------|--------------------------||
*-------------------------|-------------------------*||
*-------------------------|-------------------------*||
---0---6---3---9---6-0-6--|--0---6---3---9---6-0-6---||


   E  Q    E  Q    S S E     E  Q    E  Q    S S E     
--------------------------|--------------------------||
*-------------------------|-------------------------*||
*-------------------------|-------------------------*||
---0-------3-------6-0-6--|--0-------3-------6-0-6---||


   E.  E.  E.  E.  S S E     E.  E.  E.  E.  S S E     
--------------------------|--------------------------||
*-------------------------|-------------------------*||
*-------------------------|-------------------------*||
---0---6---3---9---6-0-6--|--0---6---3---9---6-0-6---||


   3  3   3  3      3  3   |-3|                                  
   E  E.  E  Q.     E  E.  E  Q       E  E  S E.  E  E  S E.   4x
-----------------------------------|---------------------------||
*----------------------------------|--------------------------*||
*----------------------------------|----------8-----------8---*||
---0--0---0--6------3--3---3--9----|--0--7--0-----0--7--0------||


   E  E  S E.  E  E  S E.     E  E  S E.  E  E  S E.   
---------------------------|--------------------------|
*--------------------------|--------------------------|
*--7--7--7-7---7--7--7-7---|--5--5--5-5---5--5--5-5---|
---------------------------|--------------------------|


  E  E  S E.  E  E  S E.     E  E  S E.  E  E  S E.     
--------------------------|---------------------------||
--------------------------|--------------------------*||
--7--7--7-7---7--7--7-7---|--5--5--5-5---5--5--5-5---*||
--------------------------|---------------------------||


   E  E  S E.  E  E  S E.     E  E  S E.  E  E  S E.   4x
---------------------------|---------------------------||
*--------------------------|--------------------------*||
*--------------------------|--5--5--5-5---5--5--5-5---*||
---1--0--0-0---0--0--0-0---|---------------------------||


   E  Q    E  Q    S S E     E  Q    E  Q    S S E     
--------------------------|--------------------------||
*-------------------------|-------------------------*||
*-------------------------|-------------------------*||
---0-------3-------6-0-6--|--0-------3-------6-0-6---||


   E.  E.  E.  E.  S S E     E.  E.  E.  E.  S S E     
--------------------------|--------------------------||
*-------------------------|-------------------------*||
*-------------------------|-------------------------*||
---0---6---3---9---6-0-6--|--0---6---3---9---6-0-6---||


   E  Q    E  Q    S S E     E  Q    E  Q    S S E     
--------------------------|--------------------------||
*-------------------------|-------------------------*||
*-------------------------|-------------------------*||
---0-------3-------6-0-6--|--0-------3-------6-0-6---||


   E.  E.  E.  E.  S S E     E.  E.  E.  E.  S S E     
--------------------------|--------------------------||
*-------------------------|-------------------------*||
*-------------------------|-------------------------*||
---0---6---3---9---6-0-6--|--0---6---3---9---6-0-6---||


   3  3   3  3      3  3   |-3|                                  
   E  E.  E  Q.     E  E.  E  Q       E  E  S E.  E  E  S E.   4x
-----------------------------------|---------------------------||
*----------------------------------|--------------------------*||
*----------------------------------|----------8-----------8---*||
---0--0---0--6------3--3---3--9----|--0--7--0-----0--7--0------||


  E  E  H.             
---------------------||
---------------------||
--7--7---------------||
---------------------||




Duration Legend
---------------
W - whole
H - half
Q - quarter
E - 8th
S - 16th
T - 32nd
X - 64th
. - note dotted
|-n-|  - n-tuplets


Tablature Legend
----------------
L - tied note
x - dead note
g - grace note
(n) - ghost note
> - accentuded note
NH - natural harmonic
AH - artificial harmonic
TH - tapped harmonic
SH - semi harmonic
PH - pitch harmonic
h - hammer on
p - pull off
b - bend
br - bendRelease
pb - preBend
pbr - preBendRelease
brb - bendReleaseBend
\n/ - tremolo bar dip
\n - tremolo bar dive
-/n - tremolo bar Release up
/n\ - tremolo bar inverted dip
/n - tremolo bar return
-\n - tremolo bar Release down
S - shift slide
s - legato slide
/ -  slide into from below or out of upwards
\ -  slide into from above or out of downwards
~ - vibrato
W - wide vibrato
tr - trill
TP - tremolo picking
T - tapping
S - slap
P - pop
< - fade in
^ - brush up
v - brush down





Comments


Popular Napalm Death tabs & chords
Inner Incineration Bass Tabs
Nazi Punks Fuck Off Bass Tabs
On The Brink Of Extinction Bass Tabs
On The Brink Of Extinction 2 Bass Tabs
All Intensive Purposes Tabs
Inside The Torn Apart Tabs
Instinct Of Survival Tabs
Necessary Evil Tabs
Success Tabs
The Infiltraitor Tabs


Song lyrics



↑ Back to top | Tablatures and chords are parodies/interpretations of the original songs. You may use it for private study, scholarship, research or language learning purposes only
© 2014 AZChords.com Contact us | Privacy policy | DMCA | Add/correct tabs | Request tabs | Top 50 tabs