» » »

Napalm Death, Greed Killing Tabs (ver.1)

Artists:  A B C D E F G H I J K L M N O P Q R S T U V W X Y Z # 

Greed Killing Tabs (ver.1)

Napalm Death Tabs
Rating:
5/5 (3 votes)
Hard to play? Try these video lessons and learn fast.
                                                  GREED KILLING
                           As recorded by Napalm Death
                         (From the 1995 Album DIATRIBES)

Words by Embury, Harris

Music by Harris

Gtr I (D G C F A D)
Gtr II (D G C F A D)

   Intro
    Moderately Q=125
    $
    N.C.(E)               (Dsus2)
   4/4
    Gtr I
    E E S E S E E S E S   E E S E S E E S E S  4x
||----------------------|----------------------||-|
||o---------------------|---------------------o||-|
||--9-9-9-9-9-9-9-9-9-9-|-7-7-7-7-7-7-7-7-7-7--||-|
||----------------------|----------------------||-|
||o-7-7-7-7-7-7-7-7-7-7-|-5-5-5-5-5-5-5-5-5-5-o||-|
||----------------------|----------------------||-|
|
|   Gtr II
|   E E S E S E E S E S   E E S E S E E S E S  4x
||----------------------|----------------------||-|
||o---------------------|---------------------o||-|
||--9-9-9-9-9-9-9-9-9-9-|-9-9-9-9-9-9-9-9-9-9--||-|
||----------------------|----------------------||-|
||o-7-7-7-7-7-7-7-7-7-7-|-7-7-7-7-7-7-7-7-7-7-o||-|
||----------------------|----------------------||-|


   Verse
                                          D.C.
    F5E5                  D5
        PM  PM    PM  PM      PM  PM    PM  PM
    E E S E S E E S E S   E E S E S E E S E S      4x
||----------------------|--------------------------||
||o---------------------|-------------------------o||
||----------------------|--------------------------||
||----------------------|-7-7---7---7-7---7--------||
||o-3-2---2---2-2---2---|-5-5-5-5-5-5-5-5-5-5-----o||
||--1-0-0-0-0-0-0-0-0-0-|--------------------------||
|
|       PM  PM    PM  PM      PM  PM    PM  PM
|   E E S E S E E S E S   E E S E S E E S E S      4x
||----------------------|--------------------------||
||o---------------------|-------------------------o||
||----------------------|--------------------------||
||----------------------|-7-7---7---7-7---7--------||
||o-3-2---2---2-2---2---|-5-5-5-5-5-5-5-5-5-5-----o||
||--1-0-0-0-0-0-0-0-0-0-|--------------------------||


   Bridge                               Pre-Chorus
    $$                                                 D.S.S.
    E5         G5         N.C.           E5  Bb5 G5  C#5 N.C.
    Gtrs I, II
                                           PM  PM  PM  PM
    S S +S  E. S S +S  E. S S E   4x     E S E S E S E S S S E   4x
||--------------------------------||-||--------------------------||
||o------------------------------o||-||o------------------------o||
||--------------------------------||-||--------------------------||
||--------------------------------||-||------3-------6-----------||
||o-2-2-(2)----5-5-(5)------7----o||-||o-2---1-1-5---4-4---7----o||
||--0-0-(0)----3-3-(3)----6---6\--||-||--0-0-----3-3-----6---6\--||


   Chorus
                                        D.S.
    E5    Bb5 G5    C#5   E5Bb5 E5VII Bb5 E5VII   N.C.(E)
        PM  PM    PM  PM      PM  PM    PM  PM
    E E S E S E E S E S   E E S E S E E S E S  4x E E. E. H
||----------------------|----------------------||--------------*|
||o---------------------|---------------------o||--------------*|
||----------------------|----------------------||-9-9\---------*|
||--------3---------6---|-9-----9---9-----9----||--------------*|
||o-2-2---1---5-5---4-4-|-7-8---7---7-8---7---o||-7-7\---------*|
||--0-0-0---0-3-3-3-----|---6-0---0---6-0---0--||--------------*|


Duration Legend
---------------
W - whole; H - half; Q - quarter; E - 8th; S - 16th; T - 32nd; X - 64th; a - acciaccatura
+ - note tied to previous; . - note dotted; .. - note double dotted
Uncapitalized letters represent notes that are staccato (1/2 duration)
Irregular groupings are notated above the duration line
Duration letters will always appear directly above the note/fret number it represents the
duration for.  Duration letters with no fret number below them represent rests.  Multi-
bar rests are notated in the form Wxn, where n is the number of bars to rest for.  Low
melody durations appear below the staff

Tablature Legend
----------------
 h   - hammer-on
 p   - pull-off
 b   - bend
 pb  - pre-bend
 r   - bend release (if no number after the r, then release immediately)
 /\  - slide into or out of (from/to "nowhere")
 s   - legato slide
 S   - shift slide
  - natural harmonic
[n]  - artificial harmonic
n(n) - tapped harmonic
 ~   - vibrato
 tr  - trill
 T   - tap
 TP  - trem. picking
 PM  - palm muting
\n/  - tremolo bar dip; n = amount to dip
 \n  - tremolo bar down
 n/  - tremolo bar up
/n\  - tremolo bar inverted dip
 =   - hold bend; also acts as connecting device for hammers/pulls
 <>  - volume swell (louder/softer)
 x   - on rhythm slash represents muted slash
 o   - on rhythm slash represents single note slash

Misc Legend
-----------
 |  - bar
||  - double bar
||o - repeat start
o|| - repeat end
*|  - double bar (ending)
 :  - bar (freetime)
 $  - Segno
 &  - Coda
Tempo markers -  = BPM(8/16=s8/s16), where s8 = swing 8ths, s16 = swing 16ths
            

comments powered by Disqus
↑ Back to top | Napalm Death Tabs for Greed Killing. Lyrics for acoustic guitar and electric guitar. Tablatures and chords are parodies/interpretations of the original songs. You may use it for private study, scholarship, research or language learning purposes only