>
 >
Today

Today Guitar Tabs

Name Taken - Today chords, tabs, tablatures, lyrics

Guitar lessons | Add/correct | Request | Top 50 tabs Artists:  A B C D E F G H I J K L M N O P Q R S T U V W X Y Z 0-9

Today Guitar Tabs – Name Taken

CD, Sheet music, Poster

Do you like Today? Share with your friends now
TabsTabs v2
Intro 

Guitar 1 - Repeat 2x 

e|--0-0-0-0-0-0-0-0-0-0-0-0-0-0-0-0-4-4-4-4-2-2-2-2-0-0-0-0-2-2-2-2---| 
B|---5-5-5-5-4-4-4-4-5-5-5-5-4-4-4-4-5-5-5-5-5-5-5-5-5-5-5-5-5-5-5-5--| 
G|*------------------------------------------------------------------*| 
D|*------------------------------------------------------------------*| 
A|--------------------------------------------------------------------| 
E|--------------------------------------------------------------------| 

Guitar 2 - Enter At 0:06...Repeat 3x 

e|--------------------------------------------------------------------| 
B|--------------------------------------------------------------------| 
G|*-----4-------4-------4-------4-------4-------4-------4-------4----*| 
D|*---2---2---2---2---2---2---2---2---2---2---2---2---2---2---2---2--*| 
A|--4-------4-------0-------0-----------------------0-------0---------| 
E|----------------------------------0-------0-------------------------| 

Guitar 1 - 

e|--0-0-0-0-0-0-0-0-0-0-0-0-0-0-0-0-4-4-4-4-2-2-2-2-0-0-0-0-4-4-4-4---| 
B|---5-5-5-5-4-4-4-4-5-5-5-5-4-4-4-4-5-5-5-5-5-5-5-5-5-5-5-5-5-5-5-5--| 
G|--------------------------------------------------------------------| 
D|--------------------------------------------------------------------| 
A|--------------------------------------------------------------------| 
E|--------------------------------------------------------------------| 

Guitar 2 - 

e|--------------------------------------------------------------------| 
B|--------------------------------------------------------------------| 
G|-44444444444444444444444444444444444444444444444444444444-4---------| 
D|-22222222222222222222222222222222222222222222222222222222-2---------| 
A|-4444444400000000xxxxxxxx000000004444444400000000xxxxxxxx-0---------| 
E|-----------------00000000------------------------00000000-----------| 

================ 

Verse 1 

Guitar 1 - Same as Intro - Repeat 2x 

Guitar 2 - 

e|--0000000000000000000000000000000000000000000000000000000000000000--| 
B|--0000000000000000000000000000000000000000000000000000000000000000--| 
G|--4444444444444444444444444444444444444444444444444444444444444444--| 
D|--2222222222222222222222222222222222222222222222222222222222222222--| 
A|--4444444444444444000000000000000044444444444444440000000000000000--| 
E|--------------------------------------------------------------------| 

Said You'd take me up... 

e|--0000000000000000000000000000000000000000000000000000000000000000--| 
B|--0000000000000000000000000000000000000000000000000000000000000000--| 
G|--4444444444444444444444444444444444444444444444444444444444444444--| 
D|--2222222222222222222222222222222222222222222222222222222222222222--| 
A|--xxxxxxxxxxxxxxxx444444444444444400000000000000002222222222222222--| 
E|--0000000000000000--------------------------------------------------| 

And Your Eyes... 

================ 

Chorus 

Guitar 1 - Repeat 4x 

e|--7-7-7-7-7-7-7-7-5-5-5-5-4-4-4-4----| 
B|---5-5-5-5-5-5-5-5-5-5-5-5-5-5-5-5---| 
G|*-----------------------------------*| 
D|*-----------------------------------*| 
A|-------------------------------------| 
E|-------------------------------------| 

Guitar 2 - Chorus - Same As Verse (Slightly Diff Strumming Pattern...) 
(You Can Figure It Out) 

e|--0000000000000000000000000000000000000000000000000000000000000000--| 
B|--0000000000000000000000000000000000000000000000000000000000000000--| 
G|--4444444444444444444444444444444444444444444444444444444444444444--| 
D|--2222222222222222222222222222222222222222222222222222222222222222--| 
A|--4444444444444444000000000000000044444444444444440000000000000000--| 
E|--------------------------------------------------------------------| 

Hold your breath... 

e|--0000000000000000000000000000000000000000000000000000000000000000--| 
B|--0000000000000000000000000000000000000000000000000000000000000000--| 
G|--4444444444444444444444444444444444444444444444444444444444444444--| 
D|--2222222222222222222222222222222222222222222222222222222222222222--| 
A|--xxxxxxxxxxxxxxxx444444444444444400000000000000002222222222222222--| 
E|--0000000000000000--------------------------------------------------| 

Is it ok... 

================ 

Verse 2 

Guitar 1 - Repeat 2x 

e|--0-0-0-0-0-0-0-0-0-0-0-0-0-0-0-0-4-4-4-4-2-2-2-2-0-0-0-0-2-2-2-2---| 
B|---5-5-5-5-4-4-4-4-5-5-5-5-4-4-4-4-5-5-5-5-5-5-5-5-5-5-5-5-5-5-5-5--| 
G|*------------------------------------------------------------------*| 
D|*------------------------------------------------------------------*| 
A|--------------------------------------------------------------------| 
E|--------------------------------------------------------------------| 

Guitar 2 - Repeat 4x (Vocals Start On Second Repeat) 

e|--------------------------------------------------------------------| 
B|--------------------------------------------------------------------| 
G|*-----4-------4-------4-------4-------4-------4-------4-------4----*| 
D|*---2---2---2---2---2---2---2---2---2---2---2---2---2---2---2---2--*| 
A|--4-------4-------0-------0-----------------------0-------0---------| 
E|----------------------------------0-------0-------------------------| 

Hope your seein... 

================ 

Chorus - (Same As The First) 

================ 

Bridge 

Guitar 1 - Repeat 4x 

e|--0-0-0-0-0-0-0-0-4-4-4-4-2-2-2-2----| 
B|---5-5-5-5-4-4-4-4-5-5-5-5-5-5-5-5---| 
G|*-----------------------------------*| 
D|*-----------------------------------*| 
A|-------------------------------------| 
E|-------------------------------------| 

Guitar 2 - Repeat 4x 

e|--0000-0000--0000-0000--| 
B|--0000-0000--0000-0000--| 
G|*-4444-4444--4444-4444-*| 
D|*-2222-2222--2222-2222-*| 
A|--0000-0000--4444-2222--| 
E|------------------------| 

Why are you giving... 

Guitar 1 - Repeat 2x 

e|--0-0--0-0--4-4--2-2----| 
B|---5-5--4-4--5-5--5-5---| 
G|*----------------------*| 
D|*----------------------*| 
A|------------------------| 
E|------------------------| 

Guitar 2 - Repeat 2x 

e|--0000-0000--0000-0000--| 
B|--0000-0000--0000-0000--| 
G|*-4444-4444--4444-4444-*| 
D|*-2222-2222--2222-2222-*| 
A|--0000-0000--4444-2222--| 
E|------------------------| 

================ 

Chorus - (Same As The First) 

================ 

Outro 

Guitar 1 - (Let Ring) 

e|--2-----4-----2-----0-----0---| 
B|--5-----5-----5-----5-----5---| 
G|------------------------------| 
D|------------------------------| 
A|------------------------------| 
E|------------------------------| 

Guitar 2 - (Let Chords Ring) 

e|--0-----0-----0-----0-----0---| 
B|--0-----0-----0-----0-----0---| 
G|--4-----4-----4-----4-----4---| 
D|--2-----2-----2-----2-----2---| 
A|--4-----0-----2-----0-----x---| 
E|--------------------------0---| 

================





Comments


Popular Name Taken tabs & chords
Magnolia Bass Tabs
Safety Routine Bass Tabs
Control Chords
Write Back Chords
A Year Spent Cold 1 Tabs
Control Intro Tabs
Runs Red Tabs
Safety Of Routine Tabs
Control Ukulele
Write Back Ukulele


Song lyrics



↑ Back to top | Tablatures and chords are parodies/interpretations of the original songs. You may use it for private study, scholarship, research or language learning purposes only
© 2014 AZChords.com Contact us | Privacy policy | DMCA | Add/correct tabs | Request tabs | Top 50 tabs