» » »

Naked Aggression, Hardcore Guy Bass tabs (ver.1)

Artists:  A B C D E F G H I J K L M N O P Q R S T U V W X Y Z # 

Hardcore Guy Bass tabs (ver.1)

Naked Aggression Tabs
 Rating:
4/5 (4 votes)
Hardcore Guy lessons Tabs too difficult? Try these video lessons and learn fast
                Naked Aggression
Hardcoreguy
Rate tabs
x
G -----------------|
D -----------------|     
A -2-2-4-4---------|
E ---------4-4-4-4-| 12x

G -------------------------------------------------------|
D -------------------------------------------------------|
A -5-5-5-5--7-7-7-7------------5-5-5-5--7-7-7-7--9-9-9-9-| 
E ------------------7-7-7-7-7----------------------------| 2x

   ...enough           ...enough           ...enough
G -------------------------------------------------------|
D -------------------------------------------------------|
A -9-9-9-9-9-9-9-9--7--9-9-9-9-9-9-9-9--7----------------| 
E -------------------------------------------------------|


G -----------------|
D -----------------|     
A -2-2-4-4---------|
E ---------4-4-4-4-| 12x


G -------------------------------------------------------|
D -------------------------------------------------------|
A -5-5-5-5--7-7-7-7------------5-5-5-5--7-7-7-7--9-9-9-9-| 
E ------------------7-7-7-7-7----------------------------| 2x


 ...enough           ...enough           ...enough
G -------------------------------------------------------|
D -------------------------------------------------------|
A -9-9-9-9-9-9-9-9--7--9-9-9-9-9-9-9-9--7----------------| 
E -------------------------------------------------------|


SLow part 

G -------------------------------------------------------|
D -------------------------------------------------------|
A ---2---2---2-------2---2---2---------------------------| 
E -4---2---2---2--4----2---2---2--4----------------------|

G -----------------|
D -----------------|     
A -2-2-4-4---------|
E ---------4-4-4-4-| 12x

G -------------------------------------------------------|
D -------------------------------------------------------|
A -5-5-5-5--7-7-7-7------------5-5-5-5--7-7-7-7--9-9-9-9-| 
E ------------------7-7-7-7-7----------------------------| 2x



 ...enough           ...enough           ...enough
G -------------------------------------------------------|
D -------------------------------------------------------|
A -9-9-9-9-9-9-9-9--7--9-9-9-9-9-9-9-9--7----------------| 
E -------------------------------------------------------|


everything is in order.
            
Submit corrections

comments powered by Disqus
↑ Back to top | Naked Aggression Bass for Hardcore Guy. Lyrics for acoustic guitar and electric guitar. Tablatures and chords are parodies/interpretations of the original songs. You may use it for private study, scholarship, research or language learning purposes only