» » »

Naked Aggression, Hardcore Guy Tabs (ver.1)

Artists:  A B C D E F G H I J K L M N O P Q R S T U V W X Y Z # 

Hardcore Guy Tabs (ver.1)

Naked Aggression Tabs
 Rating:
4/5 (4 votes)
Hardcore Guy lessons Tabs too difficult? Try these video lessons and learn fast
1
                -------------------------------------------------------------------------------
-------------------------------------------------------------------------------


  Riff 1:
  |----------------------------------------------------------------------|
  |----------------------------------------------------------------------|
  |---4-4--6-6------------4-4---6-6--------------------------------------|
  |---4-4--6-6---6-6-6-6--4-4---6-6----6-6-6-6---------------------------|
  |---2-2--4-4---6-6-6-6--2-2---4-4----6-6-6-6---------------------------|
  |--------------4-4-4-4---------------4-4-4-4---------------------------|
   Riff 2:
  |----------------------------------------------------------------------|
  |----------------------------------------------------------------------|
  |--7-7--9-9-----------7-7--9-9--11-11----------------------------------|
  |--7-7--9-9--9-9-9-9--7-7--9-9--11-11----------------------------------|
  |--5-5--7-7--9-9-9-9--5-5--7-7---9--9----------------------------------|
  |------------7-7-7-7---------------------------------------------------|
   Riff 3:
  |----------------------------------------------------------------------| 
  |----------------------------------------------------------------------| 
  |--------4-----4--4+-4+-4+--4-------4--------4+-4+-4+------------------|
  |---6----4--4--4--4+-4+-4+--4--6----4---6----4+-4+-4+--4---6-----------|
  |---6----2--4--2--2+-2+-2+--4--6----2---6----2+-2+-2+--4---6-----------|
  |---4~~-----2---------------2--4~~------4~~------------2---4~~---------|

-------------------------------------------------------------------------------
            
Submit corrections

comments powered by Disqus
↑ Back to top | Naked Aggression Tabs for Hardcore Guy. Lyrics for acoustic guitar and electric guitar. 1 Tablatures and chords are parodies/interpretations of the original songs. You may use it for private study, scholarship, research or language learning purposes only