» » »

Nada Surf, The Film Did Not Go Round Tabs (ver.2)

Artists:  A B C D E F G H I J K L M N O P Q R S T U V W X Y Z # 

The Film Did Not Go Round Tabs (ver.2)

Nada Surf Tabs
 Rating:
4/5 (4 votes)
The Film Did Not Go Round lessons Tabs too difficult? Try these video lessons and learn fast
                
I was just playing around with the song and this is what I figured out. This is just how 
play it, and it might not be completely correct, but if you don't know where to start, 
way is good.

Intro/In-Between Verses:
|-2---4---3---5--|
|----------------|
|-2---4---3---5--|
|----------------|
|----------------|
|----------------|

Verse:
|---3-2----3-2------3-2-----3-2-----3-2-----3-2-----3-2-----2-0-----2-0-|
|-----------------------------------------------------------------------|
|-----------------------------------------------------------------------|
|-0----0-0-----0-0------2-2-----2-2-----0-0-----0-0-----0-0-----0-0-----|
|-----------------------------------------------------------------------|
|-----------------------------------------------------------------------|

The shutter clicked, but the film did not go 'round
The shutter clicked, but the film did not go 'round
I touch these strings, but cannot touch the sound

Take a train to a bus, and then into the air
Take a train to a bus, and then into the air
If I had wings, I'd follow you up there

Girl you know I hate to see you go
I hate to see you go
but the sunlight follows you right down the road

Just the thought of you makes me wanna cry
Just the thought of you makes me wanna cry
This deep well of tears has just run dry

You showed me just how easy love could be
You showed me just how silly love could be
But everything, you showed me gracefully

Everyone's gotta leave their love sometime
Everyone's gotta leave their love sometime
If not now, then at the end of your life-time

You'll be waiting by my bed I know
You'll be waiting by my bed I know
And your last little words will be i love you so

The shutter clicked, but the film did not go 'round
The shutter clicked, but the film did not go 'round
I touch these strings, but cannot touch the sound.
            
Submit corrections

comments powered by Disqus
↑ Back to top | Nada Surf Tabs for The Film Did Not Go Round. Lyrics for acoustic guitar and electric guitar. Tablatures and chords are parodies/interpretations of the original songs. You may use it for private study, scholarship, research or language learning purposes only