>
 >
Popular 1

Popular 1 Guitar Tabs

Nada Surf - Popular 1 chords, tabs, tablatures, lyrics

Guitar lessons | Add/correct | Request | Top 50 tabs Artists:  A B C D E F G H I J K L M N O P Q R S T U V W X Y Z 0-9

Popular 1 Guitar Tabs – Nada Surf

CD, Sheet music, Poster

Do you like Popular 1? Share with your friends now
Bass TabsChordsDrum TabsTabsTabs v2Tabs v3
-------------------------------------------------------------------------------
                             POPULAR - Nada Surf
-------------------------------------------------------------------------------

Tuning: Standard


     E  E  Q    E  E  E  E     E  E  Q    E  E  E  E   
E||-------------------------|-------------------------|
B||--------0----------0-----|--------0----------0-----|
G||--------4----------4-----|--------4----------4-----|
D||--------2----------2-----|-----2-------------------|
A||--3--3-------3--3-----0--|--2--2----------2-----0--|
E||-------------------------|-------------0--0--------|


  E  E  Q    E  E  E  E     E  E  Q    E  E  E  E     E  E  Q    E  E  E  E   
-------------------------|-------------------------|-------------------------|
--------0----------0-----|--------0----------0-----|--------0----------0-----|
--------4----------4-----|--------4----------4-----|--------4----------4-----|
-----2--2-------2--------|-----2----------------0--|-----2--2-------2--------|
--3--3-------3--3-----0--|--2--2----------2-----0--|--3--3-------3--3-----0--|
-------------------------|-------------0--0--------|-------------------------|


  E  E  Q    E  E  E  E     E  E  Q    E  E  E  E     E  E  E  E  E  E  E  E   
-------------------------|-------------------------|--------------------------|
--------0----------0-----|--------0----------0-----|--------------------------|
--------4----------4-----|--------4----------4-----|--------2-----------2-----|
-----2----------------0--|-----2--2-------2--------|-----4-----4-----4-----4--|
--2--2----------2-----0--|--3--3-------3--3-----0--|--3-----------3-----------|
-------------0--0--------|-------------------------|--------------------------|


  E  E  E  E  E  E  E  E     E  E  Q    E  E  E  E     E  E  Q    E  E  E  E   
--------------------------|-------------------------|-------------------------|
--------------------------|--------0----------0-----|--------0----------0-----|
--------4-----------4-----|--------4----------4-----|--------4----------4-----|
-----4-----4-----4-----0--|-----2--2-------2--------|-----2----------------0--|
--2-----------2--------0--|--3--3-------3--3-----0--|--2--2----------2-----0--|
--------------------------|-------------------------|-------------0--0--------|


  E  E  Q    E  E  E  E     E  E  Q    E  E  E  E     E  E  Q    E  E  E  E   
-------------------------|-------------------------|-------------------------|
--------0----------0-----|--------0----------0-----|--------0----------0-----|
--------4----------4-----|--------4----------4-----|--------4----------4-----|
-----2--2-------2--------|-----2----------------0--|-----2--2-------2--------|
--3--3-------3--3-----0--|--2--2----------2-----0--|--3--3-------3--3-----0--|
-------------------------|-------------0--0--------|-------------------------|


  E  E  Q    E  E  E  E     E  E  E  E  E  E  E  E     E  E  E  E  E  E  E  E   
-------------------------|--------------------------|--------------------------|
--------0----------0-----|--------------------------|--------------------------|
--------4----------4-----|--------2-----------2-----|--------4-----------4-----|
-----2----------------0--|-----4-----4-----4-----4--|-----4-----4-----4-----0--|
--2--2----------2-----0--|--3-----------3-----------|--2-----------2--------0--|
-------------0--0--------|--------------------------|--------------------------|


    E  E  Q    E  E  E  E     E  E  Q    E  E  E  E     E  E  Q    E  E  E  E   
|--------------------------|-------------------------|-------------------------|
|---------0----------0-----|--------0----------0-----|--------0----------0-----|
|*--------4----------4-----|--------4----------4-----|--------4----------4-----|
|*-----2--2-------2--------|-----2----------------0--|-----2--2-------2--------|
|---3--3-------3--3-----0--|--2--2----------2-----0--|--3--3-------3--3-----0--|
|--------------------------|-------------0--0--------|-------------------------|


  E  E  Q    E  E  E  E     E  E  Q    E  E  E  E     E  E  Q    E  E  E  E   
-------------------------|-------------------------|-------------------------|
--------0----------0-----|--------0----------0-----|--------0----------0-----|
--------4----------4-----|--------4----------4-----|--------4----------4-----|
-----2----------------0--|-----2--2-------2--------|-----2----------------0--|
--2--2----------2-----0--|--3--3-------3--3-----0--|--2--2----------2-----0--|
-------------0--0--------|-------------------------|-------------0--0--------|


  E  E  E  E  E  E  E  E     E  E  E  E  E  E  E  E   
--------------------------|--------------------------|
--------------------------|--------------------------|
--------2-----------2-----|--------4-----------4-----|
-----4-----4-----4-----4--|-----4-----4-----4-----0--|
--3-----------3-----------|--2-----------2--------0--|
--------------------------|--------------------------|


  E  E  E  E  E  E  E  E     E  E  E  E  E  E  E  E   
--------5-----------------|--------3-----------3-----|
--------5-----------------|--------3-----------3-----|
--5--5--5-----5--5--5-----|--4--4--4--4--4--4--4--4--|
--7--7--7--7--7--7--7-----|--5--5--5--5--5--5--5--5--|
--7--7--7--7--7--7--7--5--|--5--5--5--5--5--5--5--5--|
--5--5--5--5--5--5--5--3--|--3--3--3--3--3--3--3--3--|


  E  E  E  E  E  E  E  E     E  E  E  E  E  E  E  E   
--------5-----------------|--------3-----------3-----|
--------5-----------------|--------3-----------3-----|
--5--5--5-----5--5--5-----|--4--4--4--4--4--4--4-----|
--7--7--7--7--7--7--7-----|--5--5--5--5--5--5--5--7--|
--7--7--7--7--7--7--7--5--|--5--5--5--5--5--5--5--7--|
--5--5--5--5--5--5--5--3--|--3--3--3--3--3--3--3--5--|


  E  E  E  E  E  E  E  E     E  E  E  E  E  E  Q       Q    E  E  E  E  E  E   
--------5-----------------|--------3-----------3----|-------------------------|
--------5-----------------|--------3-----------3----|-------------------------|
--5--5--5-----5--5--5-----|--4--4--4--4--4--4--4----|-------------------------|
--7--7--7--7--7--7--7--5--|--5--5--5--5--5--5--5----|--3----3--3--3--3--3--3--|
--7--7--7--7--7--7--7--5--|--5--5--5--5--5--5--5----|--3----3--3--3--3--3--3--|
--5--5--5--5--5--5--5--3--|--3--3--3--3--3--3--3----|--1----1--1--1--1--1--1--|


  E    E   E   E   E   E   Q         E  E  Q    E  E  E  E   
---------------------------------||-------------------------|
---------------------------------||--------0----------0-----|
--------------------------------*||--------4----------4-----|
--------------------------------*||-------------------------|
--3S--10--10--10--10--10--10-----||--3--3-------3--3-----0--|
--1S---8---8---7---8---8---8-----||-------------------------|


  E  E  Q    E  E  E  E     E  E  Q    E  E  E  E     E  E  Q    E  E  E  E   
-------------------------|-------------------------|-------------------------|
--------0----------0-----|--------0----------0-----|--------0----------0-----|
--------4----------4-----|--------4----------4-----|--------4----------4-----|
-------------------------|-------------------------|-------------------------|
--2--2----------------0--|--3--3-------3--3-----0--|--2--2----------------0--|
-------------0--0--------|-------------------------|-------------0--0--------|


  E  E  Q    E  E  E  E     E  E  Q    E  E  E  E     E  E  E  E  E  E  E  E   
-------------------------|-------------------------|--------------------------|
--------0----------0-----|--------0----------0-----|--------------------------|
--------4----------4-----|--------4----------4-----|--------2-----------2-----|
-------------------------|-------------------------|-----4-----4-----4-----4--|
--3--3-------3--3-----0--|--2--2----------------0--|--3-----------3-----------|
-------------------------|-------------0--0--------|--------------------------|


  E  E  E  E  E  E  E  E     E  E  Q    E  E  E  E     E  E  Q    E  E  E  E   
--------------------------|-------------------------|-------------------------|
--------------------------|--------0----------0-----|--------0----------0-----|
--------4-----------4-----|--------4----------4-----|--------4----------4-----|
-----4-----4-----4-----0--|-----2--2-------2--------|-----2----------------0--|
--2-----------2--------0--|--3--3-------3--3-----0--|--2--2----------2-----0--|
--------------------------|-------------------------|-------------0--0--------|


  E  E  Q    E  E  E  E     E  E  Q    E  E  E  E     E  E  Q    E  E  E  E   
-------------------------|-------------------------|-------------------------|
--------0----------0-----|--------0----------0-----|--------0----------0-----|
--------4----------4-----|--------4----------4-----|--------4----------4-----|
-----2--2-------2--------|-----2----------------0--|-----2--2-------2--------|
--3--3-------3--3-----0--|--2--2----------2-----0--|--3--3-------3--3-----0--|
-------------------------|-------------0--0--------|-------------------------|


  E  E  Q    E  E  E  E     E  E  E  E  E  E  E  E     E  E  E  E  E  E  E  E   
-------------------------|--------------------------|--------------------------|
--------0----------0-----|--------------------------|--------------------------|
--------4----------4-----|--------2-----------2-----|--------4-----------4-----|
-----2----------------0--|-----4-----4-----4-----4--|-----4-----4-----4-----0--|
--2--2----------2-----0--|--3-----------3-----------|--2-----------2--------0--|
-------------0--0--------|--------------------------|--------------------------|


  E  E  E  E  E  E  E  E     E  E  E  E  E  E  E  E   
--------5-----------------|--------3-----------3-----|
--------5-----------------|--------3-----------3-----|
--5--5--5-----5--5--5-----|--4--4--4--4--4--4--4--4--|
--7--7--7--7--7--7--7-----|--5--5--5--5--5--5--5--5--|
--7--7--7--7--7--7--7--5--|--5--5--5--5--5--5--5--5--|
--5--5--5--5--5--5--5--3--|--3--3--3--3--3--3--3--3--|


  E  E  E  E  E  E  E  E     E  E  E  E  E  E  E  E   
--------5-----------------|--------3-----------3-----|
--------5-----------------|--------3-----------3-----|
--5--5--5-----5--5--5-----|--4--4--4--4--4--4--4-----|
--7--7--7--7--7--7--7-----|--5--5--5--5--5--5--5--7--|
--7--7--7--7--7--7--7--5--|--5--5--5--5--5--5--5--7--|
--5--5--5--5--5--5--5--3--|--3--3--3--3--3--3--3--5--|


  E  E  E  E  E  E  E  E     E  E  E  E  E  E  Q       Q    E  E  E  E  E  E   
--------5-----------------|--------3-----------3----|-------------------------|
--------5-----------------|--------3-----------3----|-------------------------|
--5--5--5-----5--5--5-----|--4--4--4--4--4--4--4----|-------------------------|
--7--7--7--7--7--7--7--5--|--5--5--5--5--5--5--5----|--3----3--3--3--3--3--3--|
--7--7--7--7--7--7--7--5--|--5--5--5--5--5--5--5----|--3----3--3--3--3--3--3--|
--5--5--5--5--5--5--5--3--|--3--3--3--3--3--3--3----|--1----1--1--1--1--1--1--|


  E    E   E   E   E   E   E  E     E  E  E  E  E  E  E  E   
---------------------------------|--------5-----------------|
---------------------------------|--------5-----------------|
---------------------------------|--5--5--5-----5--5--5-----|
---------------------------------|--7--7--7--7--7--7--7-----|
--3S--10--10--10--10--10--10--7--|--7--7--7--7--7--7--7--5--|
--1S---8---8---7---8---8---8--5--|--5--5--5--5--5--5--5--3--|


  E  E  E  E  E  E  E  E     E  E  E  E  E  E  E  E   
--------3-----------3-----|--------5-----------------|
--------3-----------3-----|--------5-----------------|
--4--4--4--4--4--4--4--4--|--5--5--5-----5--5--5-----|
--5--5--5--5--5--5--5--5--|--7--7--7--7--7--7--7-----|
--5--5--5--5--5--5--5--5--|--7--7--7--7--7--7--7--5--|
--3--3--3--3--3--3--3--3--|--5--5--5--5--5--5--5--3--|


  E  E  E  E  E  E  E  E     E  E  E  E  E  E  E  E     E  E  E  E  E  E  Q     
--------3-----------3-----|--------5-----------------|--------3-----------3----|
--------3-----------3-----|--------5-----------------|--------3-----------3----|
--4--4--4--4--4--4--4-----|--5--5--5-----5--5--5-----|--4--4--4--4--4--4--4----|
--5--5--5--5--5--5--5--7--|--7--7--7--7--7--7--7--5--|--5--5--5--5--5--5--5----|
--5--5--5--5--5--5--5--7--|--7--7--7--7--7--7--7--5--|--5--5--5--5--5--5--5----|
--3--3--3--3--3--3--3--5--|--5--5--5--5--5--5--5--3--|--3--3--3--3--3--3--3----|


  Q    E  E  E  E  E  E     E    E   E   E   E   E   E  E     W                 
-------------------------|---------------------------------|-------------------|
-------------------------|---------------------------------|-------------------|
-------------------------|---------------------------------|-------------------|
--3----3--3--3--3--3--3--|---------------------------------|--7----------------|
--3----3--3--3--3--3--3--|--3S--10--10--10--10--10--10-----|--7----------------|
--1----1--1--1--1--1--1--|--1S---8---8---7---8---8---8--0--|--5----------------|


  W                  
-------------------||
-------------------||
-------------------||
--L----------------||
--L----------------||
--L----------------||




Duration Legend
---------------
W - whole
H - half
Q - quarter
E - 8th
S - 16th
T - 32nd
X - 64th
. - note dotted
|-n-|  - n-tuplets


Tablature Legend
----------------
L - tied note
x - dead note
g - grace note
(n) - ghost note
> - accentuded note
NH - natural harmonic
AH - artificial harmonic
TH - tapped harmonic
SH - semi harmonic
PH - pitch harmonic
h - hammer on
p - pull off
b - bend
br - bendRelease
pb - preBend
pbr - preBendRelease
brb - bendReleaseBend
\n/ - tremolo bar dip
\n - tremolo bar dive
-/n - tremolo bar Release up
/n\ - tremolo bar inverted dip
/n - tremolo bar return
-\n - tremolo bar Release down
S - shift slide
s - legato slide
/ -  slide into from below or out of upwards
\ -  slide into from above or out of downwards
~ - vibrato
W - wide vibrato
tr - trill
TP - tremolo picking
T - tapping
S - slap
P - pop
< - fade in
^ - brush up
v - brush down





Comments


Popular Nada Surf tabs & chords
Inside Of Love Bass Tabs
Popular Bass Tabs
Fruit Fly 1 Chords
Looking Through Chords
Blizzard Of '77 1 Tabs
Blonde On Blonde Tabs
Fruit Fly Ukulele
Imaginary Friends Ukulele
Killians Red Ukulele
Your Legs Grow Ukulele


Song lyrics



↑ Back to top | Tablatures and chords are parodies/interpretations of the original songs. You may use it for private study, scholarship, research or language learning purposes only
© 2014 AZChords.com Contact us | Privacy policy | DMCA | Add/correct tabs | Request tabs | Top 50 tabs