» » »

I Like What You Say Bass tabs (ver.1)

Artists:  A B C D E F G H I J K L M N O P Q R S T U V W X Y Z # 

I Like What You Say Bass tabs (ver.1)

Nada Surf
Rating:
5/5 (10 votes)

Hard to play? Try these video lessons and learn fast.
                
REAL FANS SUPPORT BANDS BY PURCHASING THEIR CD'S!!!


Tuning: Standard

. = Palm-Muted
~ = hold note
^ = vibrate
p = pull off
h = hammer on
/ = slide up
\ = slide down





Verse: (improvising part)
G--9---9-8-9-------11---9-----9-8-9----------------------------9-------------|
D--------------9----------------------9-----6---7-----7-6-7--------9---------|
A----------------------------------------------------------------------------|
E----------------------------------------------------------------------------|

G----------------------------------------------------------------------------|
D----7---7-6-7------9----------9----------------9----6--7----7-6-7--------9--|
A----------------9-------7-----------9-----7--------------------------7------|
E----------------------------------------------------------------------------|

G-------------------------------------------------------------------|
D---7---7-6-7--------9---------9-----------------9----6-------------|
A---------------9---------7---------9-----7-------------------------|
E-------------------------------------------------------------------|


Chorus: 0:36
G-----------------------------------------------|
D---7-x8----6-x8----9-x8---7-x8-----------------|
A-----------------------------------------------|
E-----------------------------------------------|

I KNOW that this sounds VERY weird, but its definately right.
U have to listen to the song to get it.

Verse II: 0:51 (a bit different)

NO BASS til 0:58
G----------------------------------------------------------------|
D---7--------9----7--------------7--------9-----7----------------|
A-------7---------------9------------7-------------------9-------|
E----------------------------------------------------------------|

Chorus: 1:13
same as before

Interlude: 1:27
G----------6-x8------------------------------------|
D-----------------7-x8---7-9-7-7-7-9-7-7-----------|
A--7-x8--------------------------------------------| x2
E--------------------------------------------------|

Verse III: 1:41

!!NO BASS til 2:02!!
G----------------------------------------------------------------|
D---7--------9----7--------------7--------9-----7----------------|
A-------7---------------9------------7-------------------9-------|
E----------------------------------------------------------------|

Chorus 2:18
same as before

Interlude: 2:32
same as before
repeat til the end



Thats it! I hope this helped, please rate, comment and correct me!

Cheers...
            
Hard to play? Try these video lessons and learn fast. | Correct




comments powered by Disqus
↑ Back to top | Tablatures and chords are parodies/interpretations of the original songs. You may use it for private study, scholarship, research or language learning purposes only