» » »

Nada Surf, I Like What You Say Tabs (ver.1)

Artists:  A B C D E F G H I J K L M N O P Q R S T U V W X Y Z # 

I Like What You Say Tabs (ver.1)

Nada Surf Tabs
 Rating:
4/5 (20 votes)
I Like What You Say lessons Tabs too difficult? Try these video lessons and learn fast
1
                
REAL FANS SUPPORT BANDS BY PURCHASING THEIR CD'S!!!


Tuning: Standard

. = Palm-Muted
~ = hold note
^ = vibrate
p = pull off
h = hammer on
/ = slide up
\ = slide down


Dont use a Capo!


Verse:
            E               repeat til chorus
E---4--4---4-4-4--4-4---------------------------|
B---5--5---5-5-5--5-5-...-----------------------|
G---4--4---4-4-4--4-4---------------------------|
D-----------------------------------------------|
A-----------------------------------------------|
E-----------------------------------------------|

Sometimes u can play this: (dont use other chords)
E-5-----------------------|
B-5--...------------------|
G-4-----------------------|
D-------------------------|
A-------------------------|
E-------------------------|


Chorus: 0:36 (these are the right chords, im sure)
   A      E      B      A
E--5------7------7------5---------------------------|
B--5------9------7------5---------------------------|
G--6------9-x8---8------6---------------------------|
D--7-x8---9------9-x8---7-x8------------------------|
A--7------7------9------7---------------------------|
E--5-------------7------5---------------------------|

Verse: 0:51
same as before

Chorus: 1:12
same as before

Interlude: 1:27 "Baby, i only wanna make u happy..."
   E        C#      A
E-----------------------------------------------|
B-----------------------------------------------|
G----------(6)----------------------------------|
D--2--------6--x8---7---------------------------|
A--2--x8----4-------7-x16-----------------------|
E--0----------------5---------------------------|

Verse: 1:41
same as before

Chorus: 2:17
same as before (just repeat, theres nothing new coming)

Interlude: 2:32
til the end



Thats it! I hope this helped, please rate, comment and correct me!

Cheers...
            
Submit corrections

comments powered by Disqus
↑ Back to top | Nada Surf Tabs for I Like What You Say. Lyrics for acoustic guitar and electric guitar. 1 Tablatures and chords are parodies/interpretations of the original songs. You may use it for private study, scholarship, research or language learning purposes only