» » »

Nada Surf, Blizzard Tabs (ver.3)

Artists:  A B C D E F G H I J K L M N O P Q R S T U V W X Y Z # 

Blizzard Tabs (ver.3)

Nada Surf Tabs
 Rating:
4/5 (4 votes)
Blizzard lessons Tabs too difficult? Try these video lessons and learn fast
                E|---0-0-0-0-0-0-0-0-----|
B|---0-0-0-0-0-5-5-5-----|
G|---5-5-5-5-5-5-5-5-----|
D|---7-7-7-7-7-7-7-7-----|
A|-----------------------|
E|-----------------------|

E|-----------------------|
B|--8-8-8-7-7-7-7-7------|
G|--0-0-0-0-0-0-0-0------|
D|--7-7-7-7-7-7-7-7------|
A|--5-5-5-5-5-5-5-5------|
E|-----------------------|

E|-----------------------|
B|--1-1-1-1-1-3-3-3------|
G|--2-2-2-2-2-2-2-2------|
D|-----------------------|
A|--3-3-3-3-3-3-3-3------|
E|-----------------------|

E|--3-3-3-3-3-3-3-3------|
B|-----------------------|
G|-----------------------|
D|-----------------------|
A|--2-2-2-2-2-2-2-2------|
E|--3-3-3-3-3-3-3-3------|
            
Submit corrections

comments powered by Disqus
↑ Back to top | Nada Surf Tabs for Blizzard. Lyrics for acoustic guitar and electric guitar. Tablatures and chords are parodies/interpretations of the original songs. You may use it for private study, scholarship, research or language learning purposes only