>
 >
Blizzard Of '77 1

Blizzard Of '77 1 Guitar Tabs

Nada Surf - Blizzard Of '77 1 chords, tabs, tablatures, lyrics

Guitar lessons | Add/correct | Request | Top 50 tabs Artists:  A B C D E F G H I J K L M N O P Q R S T U V W X Y Z 0-9

Blizzard Of '77 1 Guitar Tabs – Nada Surf

CD, Sheet music, Poster

Do you like Blizzard Of '77 1? Share with your friends now
ChordsTabsTabs v2
E|---0-0-0-0-0-0-0-0-----|
B|---0-0-0-0-0-5-5-5-----|
G|---5-5-5-5-5-5-5-5-----|
D|---7-7-7-7-7-7-7-7-----|
A|-----------------------|
E|-----------------------|

E|-----------------------|
B|--8-8-8-7-7-7-7-7------|
G|--0-0-0-0-0-0-0-0------|
D|--7-7-7-7-7-7-7-7------|
A|--5-5-5-5-5-5-5-5------|
E|-----------------------|

E|-----------------------|
B|--1-1-1-1-1-3-3-3------|
G|--2-2-2-2-2-2-2-2------|
D|-----------------------|
A|--3-3-3-3-3-3-3-3------|
E|-----------------------|

E|--3-3-3-3-3-3-3-3------|
B|-----------------------|
G|-----------------------|
D|-----------------------|
A|--2-2-2-2-2-2-2-2------|
E|--3-3-3-3-3-3-3-3------|





Comments


Popular Nada Surf tabs & chords
Concrete Bed Bass Tabs
Do It Again Bass Tabs
I Like What You Say Chords
Inside Of Love Chords
Silent Fighting Chords
Comes A Time Tabs
Robot Tabs
See These Bones 2 Tabs
From Now On Ukulele
River Phoenix Ukulele


Song lyrics



↑ Back to top | Tablatures and chords are parodies/interpretations of the original songs. You may use it for private study, scholarship, research or language learning purposes only
© 2014 AZChords.com Contact us | Privacy policy | DMCA | Add/correct tabs | Request tabs | Top 50 tabs