» » »

Murder On The Radio Tabs (ver.1)

Artists:  A B C D E F G H I J K L M N O P Q R S T U V W X Y Z # 

Murder On The Radio Tabs (ver.1)

My Favorite Highway
Rating:
5/5 (1 vote)

Hard to play? Try these video lessons and learn fast.
                Band: My Favorite Highway

Tuning:Standard


This is how they play it live i believe. It's not perfect and
it's my first tab so i hope it's clear enough.



Intro Rhythem

e:------------------------------------::
B:------------------------------------::
G:-----------11111111---------9-9-8-8-::
D:--11111111-x-x-x-x--1111111-x-x-x-x-::  I'm not sure if this is right
A:--x-x-x-x--9-9-9-9--x-x-x-x-7-7-7-7-::  but whatever.
E:--9-9-9-9-----------9-9-9-9---------::x2


Intro Lead

e:------------------------------------------------------------------::
B:------------------------------------------------------------------::
G:--66666666/111111111111/1313/141414/131313/161616/131313/212121\\\::
D:--xxxxxxxx/x x x x x x /x x /x x x /x x x /x x x /x x x /x x x \\\::
A:--44444444/9 9 9 9 9 9 /1111/121212/111111/141414/111111/191919\\\::
E:------------------------------------------------------------------::x1

Verse Rhythem

e:------------------------------::   
B:------------------------------::   
G:--666666----------------------::   
D:--666666-444444-777777-999999-::   
A:--444444-444444-777777-999999-::   
E:---------222222-555555-777777-::x4 
pm  .. ..  .. ..  .. ..  .. ..

Verse Lead

e:-------9-----12-::
B:--12-9---12-9---::
G:----------------:: 
D:----------------:: Play during the begining of the 3rd
A:----------------:: and 4th times you play the verse.
E:----------------::x1

Pre Chorus Rhythem

e:--0~-----0~--0~::   
B:--0~-----0~--0~::   
G:--6~-----2~--4~::
D:--6~-----2~--4~::
A:--4~-----0~--2~::  
E:---------------::x1

Pre Chorus Lead

e:------------:: It's really hard to hear when to play it
B:--10-9-7-5~-:: but just listen to the song lond and you'll
G:------------:: get it.
D:------------::
A:------------::
E:------------::x1


Chorus Both

e:------------------------------------::
B:------------------------------------::
G:--6666666-4444444-------------------::
D:--6666666-4444444-4444444-7777-9999-::
A:--4444444-2222222-4444444-7777-9999-::
E:------------------2222222-5555-7777-::x4

Pre Verse Lead

e:------------------------------------------------::
B:------9~99------9-7h9p7-7-5-----9~99------------::
G:----------9--------------------------9-----999--::
D:--9h11------9h11------------9h11------9h11-999--::
A:------------------------------------------------::
E:------------------------------------------------::x1


Verse 2 Rhythem

e:------------------------------::   
B:------------------------------::   
G:--666666----------------------::   
D:--666666-444444-777777-999999-::   
A:--444444-444444-777777-999999-::   
E:---------222222-555555-777777-::x4
pm  .. ..  .. ..  .. ..  .. ..


Verse 2 Lead

e:-------9~-----------9~12-12p11------------------9-12-12p11-------::
B:--12-9---12-12-9-12-----------14~12--12-12-9-12-----------14-12--::
G:-----------------------------------------------------------------::
D:-----------------------------------------------------------------::
A:-----------------------------------------------------------------::
E:-----------------------------------------------------------------::x1

Pre Chorus Rhythem

e:--0~-----0~--0~::
B:--0~-----0~--0~::
G:--6~-----2~--4~::
D:--6~-----2~--4~::
A:--4~-----0~--2~::
E:---------------::x1

Pre Chorus Lead

e:------------::
B:--10-9-7-5~-:: 
G:------------:: 
D:------------::
A:------------::
E:------------::x1


Chorus Both

e:------------------------------------::
B:------------------------------------::
G:--6666666-4444444-------------------::
D:--6666666-4444444-4444444-7777-9999-::
A:--4444444-2222222-4444444-7777-9999-::
E:------------------2222222-5555-7777-::x4


Bridge Rhythem

e:------------------------------::   
B:------------------------------::   
G:--666666----------------------::   
D:--666666-444444-777777-999999-::   
A:--444444-444444-777777-999999-::   
E:---------222222-555555-777777-::x4
pm  ...... ...... ...... ......


Bridge/Solo Lead

e:---------------------------------------------------------------:
B:---------------------9\7-5-4----------------------9-12-99-12-99:
G:-------9-8--------------------------9-8------------------------:
D:-----------9/11--9h11-------------------9/11--9h11-------------:
A:--9h11-------------------------9h11----------------------------:
E:---------------------------------------------------------------:
 
:-12121111----12121111-----12121111---------------------12121111----12121111----12121111-------::
:---------1212--------1212----------1212121412121412124---------1212-------1212--------1212----::
:------------------------------------------------------------------------------------------1111::
:----------------------------------------------------------------------------------------------::
:----------------------------------------------------------------------------------------------::
:----------------------------------------------------------------------------------------------::


Chorus Both

e:------------------------------------:: On the last time don't play the
B:------------------------------------:: B5 chord (799xxx).
G:--6666666-4444444-------------------::
D:--6666666-4444444-4444444-7777-9999-::
A:--4444444-2222222-4444444-7777-9999-::
E:------------------2222222-5555-7777-::x4
            
Hard to play? Try these video lessons and learn fast. | Correct




comments powered by Disqus
↑ Back to top | Tablatures and chords are parodies/interpretations of the original songs. You may use it for private study, scholarship, research or language learning purposes only