» » »

My Favorite Highway, Murder On The Radio Bass tabs (ver.1)

Artists:  A B C D E F G H I J K L M N O P Q R S T U V W X Y Z # 

Murder On The Radio Bass tabs (ver.1)

My Favorite Highway Tabs
Rating:
0/5 (0 votes)
Murder On The Radio lessons Tabs too difficult? Try these video lessons and learn fast
                
HEY, DON'T STEAL. Stealing is frowned upon by most humans. If you want to copy this to 
else, make sure my name's somewhere on it. RadioActiveRiot works.

Tuning: Standard

INTRO: No bass until 0:13

0:13 - 0:26
G|---------------------------------------|
D|---------------------------------------| x2
A|---------------------------------------|
E|--99999999-77777777-22222222-55557777--|

VERSE: 0:27 - 0:53 (Listen for timing.)
G|-------------------------------|
D|-------------------------------|
A|-------------------------------|
E|--99---7/99---12-11-99---9-99--|

PRE-CHORUS: 0:54 - 1:00
G|-------------------------|
D|-------------------------|
A|-------------------------|
E|-2-12-11-9-2~---5~---7~--|

CHORUS: 1:01 - 1:14
G|----------------------------------------|
D|----------------------------------------|
A|----------------------------------------|
E|--99999999-777-12-11-22222222-55557777--|

G|-----------------------------------------|
D|-----------------------------------------|
A|-----------------------------------------|
E|--99999999-777-12-11-222/14-12-55557777--|

PRE-VERSE: 1:14 - 1:28 (Listen)
G|----------------------|
D|----------------------| x2
A|----------------------|
E|--999--222--555--777--|

VERSE: 1:27 - 1:53
G|---------------------------------------|
D|---------------------------------------| x4
A|---------------------------------------|
E|--99999999-22222222-55555555-77777777--|

PRE-CHORUS 1:54 - 1:59
G|--------------------------|
D|--------------------------|
A|--------------------------|
E|--2-12-11-9-2~---5~---7~--|

CHORUS: 2:00 - 2:27
G|----------------------------------------|
D|----------------------------------------|
A|----------------------------------------|
E|--99999999-777-12-11-22222222-55557777--|

G|-----------------------------|
D|-----------------------------|
A|-----------------------------|
E|--99999999-777-12-11-222/14--|

G|----------------------------------------|
D|----------------------------------------|
A|----------------------------------------| x2
E|--99999999-777-12-11-22222222-55557777--|

BRIDGE: 2:27 - 3:06
G|------------------|
D|------------------| x3
A|------------------|
E|--9~--7~--2~--5~--|

G|------------------------------------|
D|------------------------------------|
A|------------------------------------|
E|--999999-77777777-22222222-5555555--|

G|--------------------------------------|
D|--------------------------------------| x2
A|--------------------------------------|
E|--9-9-9-9--7-7-7-7--2-2-2-2--5-5-5-5--|

G|---------|
D|---------|
A|---------|
E|--5-777--|

CHORUS: 3:06 - 3:37
G|----------------------------------------|
D|----------------------------------------|
A|----------------------------------------|
E|--99999999-777-12-11-22222222-55557777--|

G|------------------------------|
D|------------------------------|
A|------------------------------|
E|--99999999-777-12-11-222/14~--|

G|---------------------------------------|
D|---------------------------------------|
A|---------------------------------------|
E|--99999999-77777777-22222222-55557777--|

G|----------------------------------------------|
D|----------------------------------------------|
A|----------------------------------------------|
E|--99999999-1212121212121212-12/141414\222-555-|
             *Those are 12's and 14's.


| /  Slide Up
| \  Slide Down
| ~  Hold Out


You could slide in some places if you wanted to, but I'd venture to say this is perfect. 
correct me if I'm wrong.)
Enjoy~

And seriously, don't steal. Thank you.
            

comments powered by Disqus
↑ Back to top | My Favorite Highway Bass for Murder On The Radio. Lyrics for acoustic guitar and electric guitar. Tablatures and chords are parodies/interpretations of the original songs. You may use it for private study, scholarship, research or language learning purposes only