>
 >
Circle The Sky 1

Circle The Sky 1 Guitar Tabs

Mychildren Mybride - Circle The Sky 1 chords, tabs, tablatures, lyrics

Guitar lessons | Add/correct | Request | Top 50 tabs Artists:  A B C D E F G H I J K L M N O P Q R S T U V W X Y Z 0-9

Circle The Sky 1 Guitar Tabs – Mychildren Mybride

CD, Sheet music, Poster

Do you like Circle The Sky 1? Share with your friends now
TabsTabs v2Tabs v3
Circle The Sky
Mychildren Mybride

It's a really fun song to play if your into hardcore stuff. It's in dropped C. Listen to 
song to see how many times to play each riff. It's all in order.

/ = Slide
PH= Pinch Harmonic
h = Hammer-on
p = Pull-off

d --------|
A --------|
F 2-0-----|
C ----3-2-|
G --------|
C --------|

d -------------------------------------------------|
A -------------------------------------------------|
F ------------------------------------333222000222-|
C 000000222333------222333------222333-------------|
G ------------333333------111111-------------------|
C -------------------------------------------------|

d ---------------------------------------------|
A ---------------------------------------------|
F ---------------------------------------------|
C 0-0-----------------0-0----------------------|
G 0-0-5-5/8-5-5/8-4/5-0-0-5-5/8-5-888777555444-|
C 0-0-----------------0-0----------------------|

 (circle the sky)
d ------------------------------------------------|
A ------------------------------------------------|
F ------------------------------------------------|
C 00-00-00-00-00-00-00-00-00-00-00-00-00-00-00-00-|
G 00-00-00-00-00-00-00-00-00-00-00-00-00-00-00-00-|
C 00-00-00-00-00-00-00-00-00-00-00-00-00-00-00-00-|

 (I know your better than this...)
d -----------------------------------|
A -----------------------------------|
F -----------------------------------|
C -------000-000-000-000-000-000-3-2-|
G 10-8-7-000-000-000-000-000-000-3-2-|
C -------000-000-000-000-000-000-3-2-|

 (short pause)
d ------------------|
A ------------------|
F ------------------|
C 3-2-0-0-000-0-000-|
G 3-2-0-0-000-0-000-|
C 3-2-0-0-000-0-000-|

d ---------------------------------------------------------------------|
A ---------------------------------------------------------------------|
F ---------------------------------------------------------------------|
C ---------------------------------------------------------------------|
G 8-7-10-8-55555577778888/1010101088887777----77778888--------88888777-|
C ----------------------------------------8888--------10101010---------|

d -----------------------------------------------------|
A -----------------------------------------------------|
F -----------------------------------------------------|
C --------------8888887777555577775555-----------------|
G 55555577778888----------------------8888777788887777-|
C -----------------------------------------------------|

d --------------------------------|
A --------------------------------|
F --------------------------------|
C --------------------------------|
G 5-7-8-8/10-7-4--545-757-878-754-|
C --------------------------------|

d ------------------------------------------|
A ------------------------------------------|
F 333333-333-5-2----------------------------|
C 333333-333-5-2-00000-3p0-0h2-000003p0-0h5-|
G 111111-111-3-0-00000---------00000--------|
C ---------------00000---------00000--------|

d ------------------------------------------------|
A ------------------------------------------------|
F 333333-333-3/5553332----------------------------|
C 333333-333-----------00000-3p0-0h2-000003p0-0h5-|
G 111111-111-----------00000---------00000--------|
C ---------------------00000---------00000--------|

 (past ten thousand...)
d --------------------------------------------------|
A --------------------------------------------------|
F --------------------------------------------------|
C 3333332222225555553333337777777555555888888777777-
G --------------------------------------------------|
C --------------------------------------------------|

d -----------------------------------------|
A -----------------------------------------|
F -------------------333333-333-222222-222-|
C 000000-2-3-5-7-5-3-333333-333-222222-222-|
G 000000-------------111111-111-000000-000-|
C 000000-----------------------------------|

d -----------------------------------------------|
A -----------------------------------------------|
F -----------------------------------------------|
C 000000-000-000000-3PH-000000-000-2p0-3p0-5p0-7-|
G 000000-000-000000-----000000-000---------------|
C 000000-000-000000-----000000-000---------------|

d -------------------------------------|
A -------------------------------------|
F 333333-333-333/5/3-222222-22-2-0-----|
C 333333-333-333/5/3-222222-22-----3-2-|
G 111111-111-111/3/1-000000-00---------|
C -------------------------------------|

d ----------------------------|
A ----------------------------|
F ----------------------------|
C 0-0-000-0-000-000-0-0-000-0-|
G 0-0-000-0-000-000-0-0-000-0-|
C 0-0-000-0-000-000-0-0-000-0-|

d ------------------------------------|
A ------------------------------------|
F ------------------------------------|
C 0-0-000-0-000-000-0-0-000-0-000-000-|
G 0-0-000-0-000-000-0-0-000-0-000-000-|
C 0-0-000-0-000-000-0-0-000-0-000-000-|

That's it, have fun!





Comments


Popular Mychildren Mybride tabs & chords
Headshot! Bass Tabs
Hooligans Bass Tabs
On Wings Of Integrity Bass Tabs
Crimson Grim Tabs
Every Moment Tabs
FaithlessIntro Tabs
Headshot! 2 Tabs
Hooligans Tabs
Hooligans 1 Tabs
On Wings Of Integrity 1 Tabs


Song lyrics



↑ Back to top | Tablatures and chords are parodies/interpretations of the original songs. You may use it for private study, scholarship, research or language learning purposes only
© 2014 AZChords.com Contact us | Privacy policy | DMCA | Add/correct tabs | Request tabs | Top 50 tabs