» » »

My Bloody Valentine, You Made Me Realise Tabs (ver.1)

Artists:  A B C D E F G H I J K L M N O P Q R S T U V W X Y Z # 

You Made Me Realise Tabs (ver.1)

My Bloody Valentine Tabs
Rating:
5/5 (5 votes)
You Made Me Realise lessons Tabs too difficult? Try these video lessons and learn fast
                Standard Tuning

Intro Riff

e-----------------------------------------|
b-----------------------------------------|
g--9--9--9-9-----9--9--9-9----9--9--9-9---|
d--8--8--8-8-----8--8--8-8----8--8--8-8---|
a--7--7--7-7-----7--7--7-7----7--7--7-7---|
e-------------0-------------0-----------0-|

e-------------------------------------------|
b-------------------------------------------|
g-/14--14--14-14----------------------------|
d-/13--13--13-13----------------------------|
a-/12--12--12-12----------------------------|
e-------------------------------------------|

Verse Chords:

E:x799xx
D:x577xx
C:x355xx
A:x022xx


E              D         C
What did (you say you'd) find

E                              D
Then come, come, come, get the hell inside

E        D         C
You can close your eyes

E                              D
Well you might as well commit suicide

E     D               C          D
Wait for me because I waited for you

E     D             C          D
No that's not what you should do

A                    C
Don't hate me 'cause I don't hate you

E D    C
Insane eyes


You made me realise

Intro Riff-Repeat, thats about it.
            

comments powered by Disqus
↑ Back to top | My Bloody Valentine Tabs for You Made Me Realise. Lyrics for acoustic guitar and electric guitar. Tablatures and chords are parodies/interpretations of the original songs. You may use it for private study, scholarship, research or language learning purposes only