» » »

Mxpx, Summer Of Bass tabs (ver.1)

Artists:  A B C D E F G H I J K L M N O P Q R S T U V W X Y Z # 

Summer Of Bass tabs (ver.1)

Mxpx Tabs
 Rating:
4/5 (4 votes)
Summer Of lessons Tabs too difficult? Try these video lessons and learn fast
                Verse 1(00:14)
|----------------------|
|----------------------|
|-3333333333-----------| x2
|-----------3333333333-|

Chorus 1(00:23)
|---------------------------|
|---------------------------|
|-000000------333333--------| x2
|-------333333-------111111-|

Then...(00:33)
|---------|
|---------|
|-000000--| x1
|-------3-|

Verse 2 (00:36)
|----------------------|
|----------------------|
|-3333333333-----------| x3
|-----------3333333333-|

Chorus 2(00:49)
|--------------------------|
|--------------------------|
|-000000------333333-------| x2
|-------333333------111111-|

Then...(00:58)
|---------|
|---------|
|-000000--| x1
|-------3-|

Verse 3 (01:01)
|----------------------|
|----------------------|
|-3333333333-----------| x2
|-----------3333333333-|

Breakdown (01:10)
|------------------------------------------|
|------------------------------------------|
|------333-3---------------------333333----| x1
|-111-1-----333-3-55-5-33--111-1-----------|

Then...(01:19)
|----------|
|----------|
|-3------3-| x1
|----3-----|

Verse 4(01:29)
|-----------------------|
|-----------------------|
|-3333333333------------| x2
|-----------3333333333--|

Chorus 3(01:38)
|--------------------------|
|--------------------------|
|-000000------333333-------| x2
|-------333333------111111-|

Then(01:47)
|------------|
|------------|
|-000000-----| x1
|-------3----|

Ending (01:50)              End on
|-----------------------|   |---|
|-----------------------|   |---|
|-3333333333------------| x4|-3-|
|------------3333333333-|   |---|

Thats it! all done, that should be right!
            
Submit corrections

comments powered by Disqus
↑ Back to top | Mxpx Bass for Summer Of. Lyrics for acoustic guitar and electric guitar. Tablatures and chords are parodies/interpretations of the original songs. You may use it for private study, scholarship, research or language learning purposes only