» » »

Mxpx, Punk Rock Show Tabs (ver.1)

Artists:  A B C D E F G H I J K L M N O P Q R S T U V W X Y Z # 

Punk Rock Show Tabs (ver.1)

Mxpx Tabs
Rating:
0/5 (0 votes)
Punk Rock Show lessons Tabs too difficult? Try these video lessons and learn fast
                This is by mxpx a kickass song punk rock show


		intro
--------------------------------
--------------------------------
----5-5---------7-7-----------
----5-5---7-7--7-7--5-5------x2
----3-3---5-5--5-5--5-5------
-----------5-5--------3-3-----

verse played slower than intro
--------------------------------
--------------------------------
----5-5---------7-7-----------
----5-5---7-7--7-7--5-5------x4
----3-3---5-5--5-5--5-5------
-----------5-5--------3-3-----

repeat that again faster

		Chorus
------------------------------
------------------------------
---------5-5-----------------
---3-3--5-5--7-7--5-5------
---3-3--3-3--7-7--5-5-----
---1-1--------5-5--3-3-----

then just repeat that all over
            

comments powered by Disqus
↑ Back to top | Mxpx Tabs for Punk Rock Show. Lyrics for acoustic guitar and electric guitar. Tablatures and chords are parodies/interpretations of the original songs. You may use it for private study, scholarship, research or language learning purposes only