» » »

Party My House Be There Tabs (ver.2)

Artists:  A B C D E F G H I J K L M N O P Q R S T U V W X Y Z # 

Party My House Be There Tabs (ver.2)

Mxpx
Rating:
0/5 (0 votes)

Tabs too difficult? Try these video lessons and learn fast.
                MXPX – Party, My house, Be there

Nothing special here really, I think I covered all the guitar parts, and even some of the bass stuff. If you want to play it like Tom, you have to cut down the number of times you strum each cord from 4 to 3 and then syncopate it. Easy Stuff!


Intro:              “without”     “all”     “recall”    “you’ve”
e----------------------------------------------------------------------
B----------------------------------------------------------------------
G---9-9-9-9-9-9-9---9-9-9-9------9-9-9-9-----4-4-4-4----9-9~~~~--------
D---9-9-9-9-9-9-9---7-7-7-7------9-9-9-9-----4-4-4-4----9-9~~~~--------
A----------------------------------------------------------------------
E----------------------------------------------------------------------

Pre-Chorus
e----------------------------------------------------------------------
B----------------------------------------------------------------------
G-------2-2-4-4---------2-2-4-4----------------------------------------
D-2-4-4-2-2-4-4-2-2-4-4-2-2-4-4-2~~~~----------------------------------
A-2-4-4-0-0-2-2-2-2-4-4-0-0-2-2-2~~~~----------------------------------
E-0-2-2---------0-0-2-2---------0~~~~----------------------------------

Bass thingy (the guitar part is in the ()’s, the rest is the bass)
e----------------------------------------------------------------------
b----------------------------------------------------------------------
G----------------------------------------------------------------------
D-----------------------------------(7)--------------------------------
A-7-7-7-7---------7-7-7-7-----------(7)--------------------------------
E---------5-5-5-5---------7-7-7-7-5-(5)--------------------------------

Pre-chorus
e----------------------------------------------------------------------
B----------------------------------------------------------------------
G-------2-2-4-4---------2-2-4-4----------------------------------------
D-2-4-4-2-2-4-4-2-2-4-4-2-2-4-4----------------------------------------
A-2-4-4-0-0-2-2-2-2-4-4-0-0-2-2----------------------------------------
E-0-2-2---------0-0-2-2------------------------------------------------

e----------------------------------------------------------------------
b----------------------------------------------------------------------
G----------------------------------------------------------------------
D-7-7-7-7-6-6-6-6-9-9-9-9-9-9-9-9--------------------------------------
A-7-7-7-7-6-6-6-6-9-9-9-9-9-9-9-9--------------------------------------
E-5-5-5-5-4-4-4-4-7-7-7-7-7-7-7-7--------------------------------------

Chorus:
e----------------------------------------------------------------------
b----------------------------------------------------------------------
G-9-9-9-9--------------------------------------------------------------
D-9-9-9-9-7-7-7-7-4-4-4-4-9-9-9-9---------------X2---------------------
A-7-7-7-7-7-7-7-7-4-4-4-4-9-9-9-9--------------------------------------
E---------5-5-5-5-2-2-2-2-7-7-7-7--------------------------------------

e----------------------------------------------------------------------
b----------------------------------------------------------------------
G-9-9-9-9---------9-9-9-9---------9-9-9-9------------------------------
D-9-9-9-9-7-7-7-7-9-9-9-9-9-9-9-9-9-9-9-9-7-7-7-7-9-9-9-9--------------
A-7-7-7-7-7-7-7-7-7-7-7-7-9-9-9-9-7-7-7-7-7-7-7-7-9-9-9-9--------------
E---------5-5-5-5---------7-7-7-7---------5-5-5-5-7-7-7-7--------------


Bridge:
x-x-9-x-x-9-x-x-9-x-x-9-x-x-9-x-x-9-x-x-9-x-x-9-----------------------
x-x-9-x-x-9-x-x-9-x-x-9-x-x-9-x-x-9-x-x-9-x-x-9-x-x-7-x-x-7-x-x-7-x-x-7
x-x-7-x-x-7-x-x-7-x-x-7-x-x-7-x-x-7-x-x-7-x-x-7-x-x-7-x-x-7-x-x-7-x-x-7
------------------------------------------------x-x-5-x-x-5-x-x-5-x-x-5

e----------------------------------------------------------------------
b----------------------------------------------------------------------
G-x-x-9-x-x-9-x-x-9-x-x-9----------------------------------------------
D-x-x-9-x-x-9-x-x-9-x-x-9-x-x-9-x-x-9-x-x-7----------------------------
A-x-x-7-x-x-7-x-x-7-x-x-7-x-x-9-x-x-9-x-x-7----------------------------
E-------------------------x-x-7-x-x-7-x-x-5----------------------------

Pre-chorus
e----------------------------------------------------------------------
B----------------------------------------------------------------------
G-------2-2-4-4---------2-2-4-4----------------------------------------
D-2-4-4-2-2-4-4-2-2-4-4-2-2-4-4----------------------------------------
A-2-4-4-0-0-2-2-2-2-4-4-0-0-2-2----------------------------------------
E-0-2-2---------0-0-2-2------------------------------------------------

e----------------------------------------------------------------------
b----------------------------------------------------------------------
G----------------------------------------------------------------------
D-7-7-7-7-6-6-6-6-9-9-9-9-9-9-9-9--------------------------------------
A-7-7-7-7-6-6-6-6-9-9-9-9-9-9-9-9--------------------------------------
E-5-5-5-5-4-4-4-4-7-7-7-7-7-7-7-7--------------------------------------

Chorus:
e----------------------------------------------------------------------
b----------------------------------------------------------------------
G-9-9-9-9--------------------------------------------------------------
D-9-9-9-9-7-7-7-7-4-4-4-4-9-9-9-9---------------X2---------------------
A-7-7-7-7-7-7-7-7-4-4-4-4-9-9-9-9--------------------------------------
E---------5-5-5-5-2-2-2-2-7-7-7-7--------------------------------------

e----------------------------------------------------------------------
b----------------------------------------------------------------------
G-9-9-9-9---------9-9-9-9---------9-9-9-9------------------------------
D-9-9-9-9-7-7-7-7-9-9-9-9-9-9-9-9-9-9-9-9-7-7-7-7-9-9-9-9--------------
A-7-7-7-7-7-7-7-7-7-7-7-7-9-9-9-9-7-7-7-7-7-7-7-7-9-9-9-9--------------
E---------5-5-5-5---------7-7-7-7---------5-5-5-5-7-7-7-7--------------

Outro:
e----------------------------------------------------------------------
B----------------------------------------------------------------------
G-------2-2-4-4---------2-2-4-4---------2-2-6-6---------2-2-6-6--------
D-2-4-4-2-2-4-4-2-2-4-4-2-2-4-4--2--4-4-2-2-6-6-2-2-4-4-2-2-6-6--------
A-2-4-4-0-0-2-2-2-2-4-4-0-0-2-2--2--4-4-0-0-4-4-2-2-4-4-0-0-4-4--------
E-0-2-2---------0-0-2-2----------0--2-2---------0-0-2-2----------------

e----------------------------------------------------------------------
b----------------------------------------------------------------------
G----------------------------------------------------------------------
D-7-7-6-6-9-9-2~~~~----------------------------------------------------
A-7-7-6-6-9-9-2~~~~----------------------------------------------------
E-5-5-4-4-7-7-0~~~~----------------------------------------------------

alternate way to play the intro:
Intro:              “without”     “all”     “recall”    “you’ve”
e----------------------------------------------------------------------
B----------------------------------------------------------------------
G---9-9-9-9-9-9-9---9-9-9-9------9-9-9-9----------------9-9~~~~--------
D---9-9-9-9-9-9-9---7-7-7-7------9-9-9-9-----9-9-9-9----9-9~~~~--------
A--------------------------------------------9-9-9-9-------------------
E----------------------------------------------------------------------
            
Tabs too difficult? Try these video lessons and learn fast.


comments powered by Disqus
↑ Back to top | Tablatures and chords are parodies/interpretations of the original songs. You may use it for private study, scholarship, research or language learning purposes only