» » »

Obsolete Bass tabs (ver.2)

Artists:  A B C D E F G H I J K L M N O P Q R S T U V W X Y Z # 

Obsolete Bass tabs (ver.2)

Mute Math
Rating:
3/5 (4 votes)

Hard to play? Try these video lessons and learn fast.
                (1)

g-------x8-9------------x8h9-8---------------------|
d------------------------------11-9----------------|
a--------------------------------------------------|
e----9---------------9-----------------------------|

(2)

g-------x8-9---------------------------------------|
d-----------------------x9-8-----------------------|
a----------------------------11-9------------------|
e----9---------------9-----------------------------|
            
Hard to play? Try these video lessons and learn fast. | Correct




comments powered by Disqus
↑ Back to top | Tablatures and chords are parodies/interpretations of the original songs. You may use it for private study, scholarship, research or language learning purposes only