» » »

Mute Math, Noticed Tabs (ver.3)

Artists:  A B C D E F G H I J K L M N O P Q R S T U V W X Y Z # 

Noticed Tabs (ver.3)

Mute Math Tabs
 Rating:
4/5 (9 votes)
Noticed lessons Tabs too difficult? Try these video lessons and learn fast
                Copyright © 2006 Teleprompt Records

This is very easy to play once you get the hang of it.
This is my first tab.. i hope you will enjoy!
Comments if you see a better way to play.

Ps: the intro/verse riff i got from another tab


Intro and Verse riff:
e|----------------------------------------------------|
B|----------------------------------------------------|
G|----------------------------------------------------|
D|----------------------------------------------------|
A|--------8--6--8-----8--6--8----8--6--8----8-6-8-6---|
E|---6-4-----------4----------4----------4------------|
"Careful when you open..."
e|----------------------------------------------------|
B|----------------------------------------------------|
G|----------------------------------------------------|
D|----------------------------------------------------|
A|-------8--6--8----8--6--8----8--6--8----8--6--8-----|
E|--3/6----------6----------6----------6--------------|

Pre-Chorus riff:
e|------------------|
B|------6-------4---|
G|---8-------8------|    2x
D|--8-------8-------|
A|------------------|
E|------------------|
"and all this time.."

Chorus riff:
e|------------------------------------|
B|66666666-66666666-------------------|
G|66666666-88888888-88888888-66666666-|
D|------------------88888888-88888888-|    4x
A|------------------------------------|
E|------------------------------------|
"You are reaching for..."

Verse riff
Chorus riff
Verse riff

Solo:
e|------------------------------------|
B|66666666-66666666-------------------|
G|66666666-88888888-88888888-66666666-|
D|------------------88888888-88888888-|
A|------------------------------------|
E|------------------------------------|

e|--------------------------------------------|
B|66666666-66666666-1010101010101010-99999999-|
G|66666666-88888888--8-8-8-8-8-8-8-8-88888888-|
D|--------------------------------------------|
A|--------------------------------------------|
E|--------------------------------------------|

e|-------------------------------------------|
B|66666666-66666666-111111111111111-99999999-|
G|66666666-88888888-8-8-8-8-8-8-8-8-66666666-|
D|-------------------------------------------|    2x
A|-------------------------------------------|
E|-------------------------------------------|

Chorus riff till the end


Careful when you open
it's easy to be broken
in the strangest fashion
you start a chain reaction
when you look my way
something's pounding away
And I wonder if I ever felt this before

and all this time oblivious to what you make so obvious
I can't believe I never noticed my heart before

You are reaching for something that is beating
I can't believe i never noticed my heart before
Over and again racing out of my skin
I can't believe i never noticed my heart before

At least it was never until I noticed you 
and your ways capture what I've misplaced
in the perfect fashion
Just watch my hearts reaction
This point of view is nothing that I'm used to
But I wont close my eyes cause they're onto you

And all this time it was staring me blind
I can't believe i never noticed my heart before

You are reaching for something that is beating
I can't believe i never noticed my heart before
over and again racing out of my skin
I can't believe I never noticed my heart before

at least it was never until I noticed you
Woah-oh
The only time I ever noticed my heart was when I noticed you-yeah
the only time I ever noticed my heart was when I noticed you-yeah
You-yeah, you YEAH!
1-2-3!

You are reaching for something that is beating
I can't believe i never noticed my heart before
Over and again racing out of my skin
I can't believe i never noticed my heart before

Till I noticed you-yeah
I noticed you-yeah
When I noticed you-yeah
I noticed you-yeah
That's the only time I ever noticed my heart before 
            
Submit corrections

comments powered by Disqus
↑ Back to top | Mute Math Tabs for Noticed. Lyrics for acoustic guitar and electric guitar. Tablatures and chords are parodies/interpretations of the original songs. You may use it for private study, scholarship, research or language learning purposes only