» » »

Mushroomhead, Xeroxed Tabs (ver.3)

Artists:  A B C D E F G H I J K L M N O P Q R S T U V W X Y Z # 

Xeroxed Tabs (ver.3)

Mushroomhead Tabs
Rating:
0/5 (0 votes)
Xeroxed lessons Tabs too difficult? Try these video lessons and learn fast
                Intro and Chorus
|-------------------|----------------|
|-------------------|----------------|
|-------------------|----------------|
|-2-3-2-2-2-2-2-2-2-|-5-3-2-2-2-2-2-2|
|-2-3-2-2-2-2-2-2-2-|-5-3-2-2-2-2-2-2|
|-2-3-2-2-2-2-2-2-2-|-5-3-2-2-2-2-2-2|
pm      . . . . . .         . . . . .
Before Verse
|-------------------|
|-------------------|
|-------------------|   (x4)
|-2-2-2-2--2-2-2-2-2|
|-2-2-2-2--2-2-2-2-2|
|-2-2-2-2--2-2-2-2-2|
pm. . . .  . . . . .
Verse
|-------------------|--|
|-------------------|--|
|--------(x7)--then-|--|
|-2-2-2-2-----------|-1|
|-2-2-2-2-----------|-1|
|-2-2-2-2-----------|-1|
Before Chorus
|----------|
|----------|
|----------|
|-2-2-2-2-2|
|-2-2-2-2-2|
|-2-2-2-2-2|
pm. . . . .
Outro
|---------------|------------|
|---------------|------------|
|----------(x4)-|------------|
|-2-2-2-2-2-----|-2-2-2-2-2-3|
|-2-2-2-2-2-----|-2-2-2-2-2-3|
|-2-2-2-2-2-----|-2-2-2-2-2-3|
pm. . . . .       . . . . . .

Any Questions, or you would like 
lyrics for songs email the above address.
            

comments powered by Disqus
↑ Back to top | Mushroomhead Tabs for Xeroxed. Lyrics for acoustic guitar and electric guitar. Tablatures and chords are parodies/interpretations of the original songs. You may use it for private study, scholarship, research or language learning purposes only