» » »

Mushroomhead, Our Own Way Bass tabs (ver.1)

Artists:  A B C D E F G H I J K L M N O P Q R S T U V W X Y Z # 

Our Own Way Bass tabs (ver.1)

Mushroomhead Tabs
 Rating:
4/5 (4 votes)
Our Own Way lessons Tabs too difficult? Try these video lessons and learn fast
1
                Band- Mushroomhead
Song- Our Own Way

note: r= let ring

Slow part with no vocals
G|---------------------------------------------|
D|---------------------------------------------|
A|6r-------------------------------------------|
E|----------------------6r---------------------|

Jeff's verse
G|--------------------------------------------------------------------------|
D|--------------------------------------------------------------------------|
A|6r-----------------6r-----------------------------------------------------|
E|-------------------------------------6r-------------------6r--------------|

J Mann's verse
G|-----------------------------------------------------------|
D|-----------------------------------------------------------|
A|66666666666666666666666666666666---------------------------|
E|---------------------------------666-66-66-66-666-66-66-66-|

End part (J Mann keeps yelling ARISE!!!!)
G|----------------------------------|
D|----------------------------------|
A|6r--------------------------------|
E|---------------------666-66-66-66-|

end on this
G|---------------------------------|
D|---------------------------------|
A|---------------------------------|
E|666-66-66-66-6r------------------|

that's it. the order is simple. mushroomhead rules all
            
Submit corrections

comments powered by Disqus
↑ Back to top | Mushroomhead Bass for Our Own Way. Lyrics for acoustic guitar and electric guitar. 1 Tablatures and chords are parodies/interpretations of the original songs. You may use it for private study, scholarship, research or language learning purposes only