>
 >
Never Let It Go 1

Never Let It Go 1 Guitar Tabs

Mushroomhead - Never Let It Go 1 chords, tabs, tablatures, lyrics

Guitar lessons | Add/correct | Request | Top 50 tabs Artists:  A B C D E F G H I J K L M N O P Q R S T U V W X Y Z 0-9

Never Let It Go 1 Guitar Tabs – Mushroomhead

CD, Sheet music, Poster

Do you like Never Let It Go 1? Share with your friends now
TabsTabs v2

                              mushroomhead
                             never let it go


  Subject: m/mushroomhead/never_let_it_go.tab
   album  .- xx
   track  .- never let it go
  tabs bi .- vizcain "jimi-x"


     =-=-= Legend =-=-=                    x      x
                                 x       xx        xx       x
      ~    Let ring               xx    xx          xx    xx
      /    slide down              xx  xx            xx  xx
      \    slide  up                 xx                xx
      pm   palm muting             xx  xx            xx  xx
      x    muting                 x     xx          xx     x
                                         xx        xx
     =-=-= Legend =-=-=

  en esta cancion tarde de 2:30 de la tarde a 2:40 de la tarde para sacarla
 para tocar esta cancion se nesesita una guitarra de [ Ibanez 7 cuerdas ] RG
  tambien un amplificador [ Randall ] titan y un pedal [ DOD death metal ]
      o [ DOD 308 overdrive ] para obtener el poder de [ mushroomhead ]
 "asi que subele volumen a tu amplificador y guitarra para que le saques las
Ratas a tu cuarto" si  alguien te caga el palo mandalos ala "#$%&/()


 INTRO
                     pm                   pm                   pm
D|---------------------------------------------------------------------------|
A|---------------------------------------------------------------------------|
F|---------------------------------------------------------------------------|
C|---------------------------------------------------------------------------|
G|-7~~~~~~~~~~~~~~~7-00-7~~~~~~~~~~~~~~~7-00-7~~~~~~~~~~~~~~~7-00-7~~~~~~~~~-|
D|-7~~~~~~~~~~~~~~~7-00-7~~~~~~~~~~~~~~~7-00-7~~~~~~~~~~~~~~~7-00-7~~~~~~~~~-|
A|-5~~~~~~~~~~~~~~~5-00-5~~~~~~~~~~~~~~~5-00-5~~~~~~~~~~~~~~~5-00-5~~~~~~~~~-|

     pm                                   pm                   pm
D|---------------------------------------------------------------------------|
A|-----------------------[ se repite 2 veses ]-------------------------------|
F|---------------------------------------------------------------------------|
C|---------------------------------------------------------------------------|
G|~7-00-3~~~~~~~~~~~~~~~~~~~~~~~~~~~~~~~3-00-7~~~~~~~~~~~~~~~7-00-7~~~~~~~~~-|
D|~7-00-x~~~~~~~~~~~~~~~~~~~~~~~~~~~~~~~x-00-7~~~~~~~~~~~~~~~7-00-7~~~~~~~~~-|
A|~5-00-1~~~~~~~~~~~~~~~~~~~~~~~~~~~~~~~1-00-5~~~~~~~~~~~~~~~5-00-5~~~~~~~~~-|

     pm                                           pm
D|---------------------------------------------------------------------------|
A|---------------------------------------------------------------------------|
F|---------------------------------------------------------------------------|
C|--------------/6\5-5-4---3-5/6--------/2-3-5/6\5---------------------------|
G|~7-00-3~~~~~~~---------4------3~~~~~~~----------00-7~~~~~~~~~~~~~~7-00-7~~-|
D|~7-00-x~~~~~~~----------------x~~~~~~~----------00-7~~~~~~~~~~~~~~7-00-7~~-|
A|~5-00-1~~~~~~~----------------1~~~~~~~----------00-5~~~~~~~~~~~~~~5-00-5~~-|

     pm                                            pm
D|---------------------------------------------------------------------------|
A|---------------------------------------------------------------------------|
F|---------------------------------------------------------------------------|
C|--------------/6\5-5-4---3-5/6---------/2-3-5/6\---------------------------|
G|~7-00-3~~~~~~~---------4-------3~~~~~~~----------00-7~~~~~~~~~~~~~~~~~~~~~-|
D|~7-00-x~~~~~~~-----------------x~~~~~~~----------00-7~~~~~~~~~~~~~~~~~~~~~-|
A|~5-00-1~~~~~~~-----------------1~~~~~~~----------00-5~~~~~~~~~~~~~~~~~~~~~-|


  en esta parte es con velocidad
       pm                  pm
D|--------------------------------------------------------------------------|
A|-----------------------[ se repite 2 veses ]------------------------------|
F|--------------------------------------------------------------------------|
C|--------------------------------------------------------------------------|
G|-5/7-77-7-7-7777-5---5/7-77-7-7-7777-5------------------------------------|
D|-5/7-77-7-7-7777-5---5/7-77-7-7-7777-5------------------------------------|
A|-3/5-55-5-5-5555-3---3/5-55-5-5-5555-3------------------------------------|


  en esta parte tambien es con velocidad
       pm                  pm
D|--------------------------------------------------------------------------|
A|--------------------------------------------------------------------------|
F|--------------------------------------------------------------------------|
C|--------------------------------------------------------------------------|
G|-5/7-77-7-7-7777-5---5/7-77-7-7-7777-5------------------------------------|
D|-x-x-xx-x-x-xxxx-x---x-x-xx-x-x-xxxx-x------------------------------------|
A|-3/5-55-5-5-5555-3---3/5-55-5-5-5555-3------------------------------------|


 en esta parte tambien es con velocidad
       pm                  pm            pm
D|--------------------------------------------------------------------------|
A|--------------------------------------------------------------------------|
F|--------------------------------------------------------------------------|
C|--------------------------------------------------------------------------|
G|-5/7-77-7-7-7777-5---5/7-77-7-7-7777-5-00---------------------------------|
D|-x-x-xx-x-x-xxxx-x---x-x-xx-x-x-xxxx-x-00---------------------------------|
A|-3/5-55-5-5-5555-3---3/5-55-5-5-5555-3-00---------------------------------|

                     pm                   pm                   pm
D|---------------------------------------------------------------------------|
A|---------------------------------------------------------------------------|
F|---------------------------------------------------------------------------|
C|---------------------------------------------------------------------------|
G|-7~~~~~~~~~~~~~~~7-00-7~~~~~~~~~~~~~~~7-00-7~~~~~~~~~~~~~~~7-00-7~~~~~~~~~-|
D|-7~~~~~~~~~~~~~~~7-00-7~~~~~~~~~~~~~~~7-00-7~~~~~~~~~~~~~~~7-00-7~~~~~~~~~-|
A|-5~~~~~~~~~~~~~~~5-00-5~~~~~~~~~~~~~~~5-00-5~~~~~~~~~~~~~~~5-00-5~~~~~~~~~-|

     pm                                            pm
D|---------------------------------------------------------------------------|
A|---------------------------------------------------------------------------|
F|---------------------------------------------------------------------------|
C|--------------/6\5-5-4---3-5/6---------/2-3-5/6\---------------------------|
G|~7-00-3~~~~~~~---------4-------3~~~~~~~----------00-7~~~~~~~~~~~~~~~~~~~~~-|
D|~7-00-x~~~~~~~-----------------x~~~~~~~----------00-7~~~~~~~~~~~~~~~~~~~~~-|
A|~5-00-1~~~~~~~-----------------1~~~~~~~----------00-5~~~~~~~~~~~~~~~~~~~~~-|


  en esta parte es con velocidad
       pm                  pm
D|--------------------------------------------------------------------------|
A|-----------------------[ se repite 2 veses ]------------------------------|
F|--------------------------------------------------------------------------|
C|--------------------------------------------------------------------------|
G|-5/7-77-7-7-7777-5---5/7-77-7-7-7777-5------------------------------------|
D|-5/7-77-7-7-7777-5---5/7-77-7-7-7777-5------------------------------------|
A|-3/5-55-5-5-5555-3---3/5-55-5-5-5555-3------------------------------------|


  en esta parte tambien es con velocidad
       pm                  pm
D|--------------------------------------------------------------------------|
A|--------------------------------------------------------------------------|
F|--------------------------------------------------------------------------|
C|--------------------------------------------------------------------------|
G|-5/7-77-7-7-7777-5---5/7-77-7-7-7777-5------------------------------------|
D|-x-x-xx-x-x-xxxx-x---x-x-xx-x-x-xxxx-x------------------------------------|
A|-3/5-55-5-5-5555-3---3/5-55-5-5-5555-3------------------------------------|


  en esta parte tambien es con velocidad
       pm                  pm          pm
D|--------------------------------------------------------------------------|
A|--------------------------------------------------------------------------|
F|--------------------------------------------------------------------------|
C|--------------------------------------------------------------------------|
G|-5/7-77-7-7-7777-5---5/7-77-7-7-7777-x------------------------------------|
D|-x-x-xx-x-x-xxxx-x---x-x-xx-x-x-xxxx-x------------------------------------|
A|-3/5-55-5-5-5555-3---3/5-55-5-5-5555-x------------------------------------|


D|--------------------------------------------------------------------------|
A|--------------------------------------------------------------------------|
F|--------------------------------------------------------------------------|
C|-7~~~~~~~~~6~~~~~~~~~5~~~~~~~~~7~~~~~~~~~6~~~~~~~~~5~~~-------------------|
G|-7~~~~~~~~~6~~~~~~~~~5~~~~~~~~~7~~~~~~~~~6~~~~~~~~~5~~~-------------------|
D|-5~~~~~~~~~4~~~~~~~~~3~~~~~~~~~5~~~~~~~~~4~~~~~~~~~3~~~-------------------|
A|--------------------------------------------------------------------------|

  en esta parte tambien es con velocidad
D|--------------------------------------------------------------------------|
A|--------------------------------------------------------------------------|
F|--------------------------------------------------------------------------|
C|--------------------------------------------------------------------------|
G|-7-6-5-5-6-5--7-6-5-5-6-5--7-6-5-5-6-5-7-6--------------------------------|
D|-5-4-3-3-4-3--5-4-3-3-4-3--5-4-3-3-4-3-5-4--------------------------------|
A|--------------------------------------------------------------------------|


  en esta parte tambien es con velocidad
  pm ........................................................
D|----------------------------------------|---------------------------------|
A|----------------------------------------|---------------------------------|
F|----------------------------------------|---------------------------------|
C|----------------------------------------|---------------------12-12-12-12-|
G|-12-11-x-10-10-11-10--------------------|-12-11-10-10-11-10-x-12-12-12-12-|
D|-12-11-x-10-10-11-10-[ repetir 7 veses ]|-12-11-10-10-11-10-x-10-10-10-10-|
A|-10--9-x--8--8--9--8--------------------|-10--9--8--8--9--8-x-------------|

en esta parte tambien es con velocidad
D|--------------------------------------------------------------------------|
A|--------------------------------------------------------------------------|
F|---------------------[ repetir 2 veses ]----------------------------------|
C|--------------------------------------------------------------------------|
G|-7-6-5-5-6-5--7-6-5-5-6-5--7-6-5-5-6-5-12-12-12-12------------------------|
D|-5-4-3-3-4-3--5-4-3-3-4-3--5-4-3-3-4-3-10-10-10-10------------------------|
A|--------------------------------------------------------------------------|

  pm .........................................
D|--------------------------------------------------------------------------|
A|--------------------------------------------------------------------------|
F|--------------------------------------------------------------------------|
C|--------------------------------------------------------------------------|
G|-7-7-------7-7-------7-7-------7-7-------7-7------------------------------|
D|-7-7-------7-7-------7-7-------7-7-------7-7------------------------------|
A|-5-5-------5-5-------5-5-------5-5-------5-5------------------------------|

                     pm                   pm                   pm
D|---------------------------------------------------------------------------|
A|---------------------------------------------------------------------------|
F|---------------------------------------------------------------------------|
C|---------------------------------------------------------------------------|
G|-7~~~~~~~~~~~~~~~7-00-7~~~~~~~~~~~~~~~7-00-7~~~~~~~~~~~~~~~7-00-7~~~~~~~~~-|
D|-7~~~~~~~~~~~~~~~7-00-7~~~~~~~~~~~~~~~7-00-7~~~~~~~~~~~~~~~7-00-7~~~~~~~~~-|
A|-5~~~~~~~~~~~~~~~5-00-5~~~~~~~~~~~~~~~5-00-5~~~~~~~~~~~~~~~5-00-5~~~~~~~~~-|


     pm                                           pm
D|---------------------------------------------------------------------------|
A|---------------------------------------------------------------------------|
F|---------------------------------------------------------------------------|
C|--------------/6\5-5-4---3-5/6--------/2-3-5/6\5---------------------------|
G|~7-00-3~~~~~~~---------4------3~~~~~~~----------00-7~~~~~~~~~~~~~~7-00-7~~-|
D|~7-00-x~~~~~~~----------------x~~~~~~~----------00-7~~~~~~~~~~~~~~7-00-7~~-|
A|~5-00-1~~~~~~~----------------1~~~~~~~----------00-5~~~~~~~~~~~~~~5-00-5~~-|

     pm                                            pm
D|---------------------------------------------------------------------------|
A|---------------------------------------------------------------------------|
F|---------------------------------------------------------------------------|
C|--------------/6\5-5-4---3-5/6---------/2-3-5/6\---------------------------|
G|~7-00-3~~~~~~~---------4-------3~~~~~~~----------00-7~~~~~~~~~~~~~~~~~~~~~-|
D|~7-00-x~~~~~~~-----------------x~~~~~~~----------00-7~~~~~~~~~~~~~~~~~~~~~-|
A|~5-00-1~~~~~~~-----------------1~~~~~~~----------00-5~~~~~~~~~~~~~~~~~~~~~-|


   pm   pm           pm   pm
D|--------------------------------------------------------------------------|
A|--------------------------------------------------------------------------|
F|--------------------------------------------------------------------------|
C|--------------------------------------------------------------------------|
G|-00---00-7-------5-00---00-5----------------------------------------------|
D|-00---00-7-------5-00---00-5-[ asta que se termine ]----------------------|
A|-00---00-5-------7-00---00-7----------------------------------------------|

 y eso fue todo
 si alguien te dice que la musica [ death metal ] bale madre
 dile que "Chi#$%& su P&%$ Madre" ooooqueeeeeee

 "EL JIMI DEL DSA" :- dice el SKA,PUNK,POP,HOUSE,RAP y el
     peor de todos el HIP HOP valen pa puritita

  miarda miarda miarda miarda miarda miarda miarda y mas miarda
                            __
 saludos al "DICI,EKSIT,ERROR,WOMAN,PIG,PELON,GUEY,JAN,ROCKI,PAINI,SMEL
 FLEIM,TIMER,ENSER,SNOW" y a todos los del "KND" bombing crew

 tambien a mis compas de lira y musica al "PETER,CHECO,PONCHO,DANIEL,
 CUERVO,MICKEY.TJ,PAINI,GOTAMA,CHARLI gracias por la inspiracio.
 no faltaban la "MARI,PILAR,BRENDA,VALERIA,PRISILA...................

                                the end





Comments


Popular Mushroomhead tabs & chords
Crazy Bass Tabs
Sun Doesns Rise Bass Tabs
12 Hundred 2 Tabs
Damage Done Tabs
Dream Is Over 2 Tabs
Our Own Way 1 Tabs
Simple Survival Tabs
Solitaire/Unraveling Tabs
Solitaire/Unraveling 2 Tabs
Sun Doesnt Rise Tabs


Song lyrics



↑ Back to top | Tablatures and chords are parodies/interpretations of the original songs. You may use it for private study, scholarship, research or language learning purposes only
© 2014 AZChords.com Contact us | Privacy policy | DMCA | Add/correct tabs | Request tabs | Top 50 tabs