» » »

Mother Machinegun Bass tabs (ver.2)

Artists:  A B C D E F G H I J K L M N O P Q R S T U V W X Y Z # 

Mother Machinegun Bass tabs (ver.2)

Mushroomhead
Rating:
5/5 (2 votes)

Hard to play? Try these video lessons and learn fast.
                Intro
G|-------------------------------------------------|
D|---------865-------------------------------------|
A|6--6-6-6-----2--2-2-2-5-6--1-1-1-1-1-1-2-2-2-21-2|
E|-------------------------------------------------|
B|-------------------------------------------------|

G|--------------------------------------------------|
D|6-6-6-6--9-8-6--9-9-9-9-11-12-13-13-13-13-13-13-13|
A|--------------------------------------------------|
E|--------------------------------------------------|
B|--------------------------------------------------|

Verse x5
G|--------------------------------------------------|
D|--------------------------------------------------|
A|--------------------------------------------------|
E|--------------------------------------------------|
B|023-023-023-005555--------------------------------|

G|--------------------------------------------------|
D|--------------------------------------------------|
A|--------------------------------------------------|
E|-----7777-----7777--------------------------------|
B|-8888-----8888------------------------------------|

verse

Chorus x2	
G|--------------------------------------------------------------------|
D|--------------------------------------------------------------------|
A|--------------------------------------------------------------------|
E|------------------------------------------33333-5-6-7777777---------|
B|5555555-1111111-0000000-1111-0000-5555555-------------------11111-00|

verse
chorus
rest for drum piano clink part
verse

G|---------------------------------|
D|---------------------------------|
A|---------------------------------|
E|------------------3~-5-6-7~------|
B|5~-1~-0~-1~-0~-5~-----------1~-0~|

End
G|----------|
D|----------|
A|----------|
E|----------|
B|0---0---0~|
	
            
Hard to play? Try these video lessons and learn fast. | Correct




comments powered by Disqus
↑ Back to top | Tablatures and chords are parodies/interpretations of the original songs. You may use it for private study, scholarship, research or language learning purposes only