» » »

Episode Tabs (ver.2)

Artists:  A B C D E F G H I J K L M N O P Q R S T U V W X Y Z # 

Episode Tabs (ver.2)

Mushroomhead
Rating:
0/5 (0 votes)

Hard to play? Try these video lessons and learn fast.
                ok my guitar is probably tuned higher so i play it like this...but the other guy who tabbed it did a good job too...either way works...this is my fisrt tab though and im only 14 so i know im wrong..but i tried.there are two different versions of this song..thats why the other tab has an 11 in the intro..this is the other version

--------------------------
--------------------------
--------------------------
---0--8--7--6---0--8--7---
---0--8--7--6---0--8--7---
---0--8--7--6---0--8--7---
ok this part is basically the same only i heard like a double 0 in the song..who knoes..but i pull on instead of sliding...you can do either one though

---------------------------------
---------------------------------
---------------------------------
---3p2-00--3p2-0--6-0-0--3/5-3---
---3p2-00--3p2-0--6-0-0--3/5-3---
---3p2-00--3p2-0--6-0-0--3/5-3---
same here..same thing i just pull and not slide
--------------------------------
--------------------------------
--------------------------------
---3p2-00--3p2-0--6-0-0-0-0-0---
---3p2-00--3p2-0--6-0-0-0-0-0---
---3p2-00--3p2-0--6-0-0-0-0-0---
            
Hard to play? Try these video lessons and learn fast. | Correct




comments powered by Disqus
↑ Back to top | Tablatures and chords are parodies/interpretations of the original songs. You may use it for private study, scholarship, research or language learning purposes only