» » »

Before I Die Bass tabs (ver.2)

Artists:  A B C D E F G H I J K L M N O P Q R S T U V W X Y Z # 

Before I Die Bass tabs (ver.2)

Mushroomhead
Rating:
0/5 (0 votes)

Tabs too difficult? Try these video lessons and learn fast.
                This song is pretty simple except for the weird really fast slapping. I'd learned to do it by instead of slapping with my hand in a fist and my thumb parallel with the strings, I have my hand open with my fingers completely spread out and I kind of rock my hand back and forth so I slap with my thumb and my pinky. Just listen to the cd for the timing.
S= Slap
/= Slide

Riff 1

G--------------------
D--------------------
A--------------------    
E-000000-0-0-0-0-----
         S S S S

Riff 2

G--------------------------
D-------------------------- 
A--------------------------
E-0-0-3-3-2-3-0-0-0/6-6-6-6    
              S S S  S S S S

Riff 3
G--------------------------
D--------------------------
A--------------------------
E-6-6-6-6-6-6-6-6-6-6-6-6-6
  S S S S S S S S S S S S S

Riff 4
G----------------------------
D----------------------------
A----------------------------
E-2-0-0-3-0-0-2-0-0-3/6-6-6-6


Riff 5

G--------------------------
D--------------------------
A--------------------------
E-0-11-0-10-10-7-7---------

Riff 6
G--------------------
D--------------------
A--------------------
E-66666666-6-6-6-6-6
           S S S S S


order:
Riff 1
Riff 2
Riff 3
Rest (no bass)
Riff 2
Riff 3
Riff 5
Riff 6
Riff 2
Riff 5
Riff 1 (End)
            
Tabs too difficult? Try these video lessons and learn fast.




comments powered by Disqus
↑ Back to top | Tablatures and chords are parodies/interpretations of the original songs. You may use it for private study, scholarship, research or language learning purposes only