» » »

Mushroomhead, Almost Gone Tabs (ver.3)

Artists:  A B C D E F G H I J K L M N O P Q R S T U V W X Y Z # 

Almost Gone Tabs (ver.3)

Mushroomhead Tabs
 Rating:
4/5 (4 votes)
Almost Gone lessons Tabs too difficult? Try these video lessons and learn fast
1
                
Drop C tuning as Mushroomhead plays seven string guitars.
Drop C tuning from top to bottom: CGCFAd

/ Slide up
\ Slide Down
~ Vibrato


d[----------------------------------------]
A[----------------------------------------]
F[----------------------------------------] x12
C[--10--10--8h10-------8--10--8--10-------] Verse
G[--10--10--8h10-------8--10--8--10-------]
C[--10--10--8h10--/13--8--10--8--10--\4~--]


d[---------------------------------------------------------------]
A[---------------------------------------------------------------]
F[---------------------------------------------------------------]
C[--13-13-13-13-13-13-13-13-13-13-11-11-11-11-11-11-11-11-11-11--] Verse Tag
G[--13-13-13-13-13-13-13-13-13-13-11-11-11-11-11-11-11-11-11-11--]
C[--13-13-13-13-13-13-13-13-13-13-11-11-11-11-11-11-11-11-11-11--]


d[----------------------------------------|----------------------]
A[----------------------------------------|----------------------]
F[----------------------------------------|----------------------] x12
C[--10--10--8h10-------8--10--8--10-------|--10--10--8h10--------] 
G[--10--10--8h10-------8--10--8--10-------|--10--10--8h10--------]
C[--10--10--8h10--/13--8--10--8--10--\4~--|--10--10--8h10--/13~--]


d[---------------------------------------------------------------]
A[---------------------------------------------------------------]
F[---------------------------------------------------------------]
C[--13-13-13-13-13-13-13-13-13-13-11-11-11-11-11-11-11-11-11-11--] Verse Tag
G[--13-13-13-13-13-13-13-13-13-13-11-11-11-11-11-11-11-11-11-11--]
C[--13-13-13-13-13-13-13-13-13-13-11-11-11-11-11-11-11-11-11-11--]


d[--------------------------]
A[--------------------------]
F[--------------------------]
C[--/10--9--8------3--2--1--] Bridge
G[--/10--9--8------3--2--1--]
C[--/10--9--8------3--2--1--]


d[--------------------------]
A[--------------------------]
F[--------------------------] xA lot
C[--10--10--8h10--4--5--/8--] Outro
G[--10--10--8h10--4--5--/8--]
C[--10--10--8h10--4--5--/8--]
            
Submit corrections

comments powered by Disqus
↑ Back to top | Mushroomhead Tabs for Almost Gone. Lyrics for acoustic guitar and electric guitar. 1 Tablatures and chords are parodies/interpretations of the original songs. You may use it for private study, scholarship, research or language learning purposes only