>
 >
Chain Ring

Chain Ring Guitar Tabs

Mucc - Chain Ring chords, tabs, tablatures, lyrics

Guitar lessons | Add/correct | Request | Top 50 tabs Artists:  A B C D E F G H I J K L M N O P Q R S T U V W X Y Z 0-9

Chain Ring Guitar Tabs – Mucc

CD, Sheet music, Poster

Do you like Chain Ring? Share with your friends now
Tabs

SONG TITLE    : Chain Ring
ARTIST        : MUCC
DISCRIPTION   : ZOMBIE LOAN 1ST ENDING THEME


INTRO:

    C#m               A

e|-----------------------------------------|
B|-----------------------------------------|
G|-----------------------------------------|
D|--6--6---6---4--6------------------------|
A|--4--4--------------7---7--7---9---7~~-\-|
E|--------------------5---5--5-------------| \
                                           \
    E                 B                     \Repeat
                                 AH         /  2x
e|----------------------------------------|  /
B|----------------------------------------| /
G|----------------------------------------|
D|--9--9---9--7---6-----------------------|
A|--7--7--------------9---9--9---7/=9~~---|
E|--------------------7---7--7------------|

Hear and Memorize first the Intro Before Playing It..

    C#m               A
    PM PM             PM PM
e|----------------------------------------|
B|----------------------------------------|
G|----------------------------------------|
D|--6--6---6---4--6-----------------------|
A|--4--4--------------7--7---11---9---7---|~\
E|--------------------5--5----------------| \
                                           \
    E                 B                     \Repeat
    PM PM             PM PM                 /  2x
e|----------------------------------------|  /
B|----------------------------------------| /
G|----------------------------------------|
D|--9--9---9--7---6-----------------------|
A|--7--7--------------9--9--9---7/=9~~----|
E|--------------------7--7----------------|


VERSE:

  C#m                   A
  bokutachi wa tsumibukaki CHAIN
    E          B
  utaeyo iradatsu kokoro de
  C#m                    A
  aimai na fusekai sekai no LINE
    E              B
  bokura wa warattetai dake


REFRAIN:

A                   C#m
  kimi ga naku no nara
              A              B
  sou boku wa kono ame ni narou
     (Scratch)
  ima....


CHORUS:

  E
  mirai sousou chouetsu wo
 G#m                       C#m       A
  egaite ima shoudou wo zoukei he saisei he
 E
  POCKET nejikonda te wa
 G#m                       C#m       A
  nandatte tsukameru sa sousei he chouetsu shite


FILL:

    C#m                A             B
e|---------------------------------------------|
B|---------------------------------------------|
G|-----------x-x--x-x--------------------------|
D|--11--11---x-x--x-x--7--7---7--7-/-9--9---9--|
A|--11--11---x-x--x-x--7--7---7--7-/-9--9---9--|
E|--9---9--------------5--5---5--5-/-7--7---7--|

    C#m                A             B
e|---------------------------------------------|
B|---------------------------------------------|
G|----------9p8---x-x--------------------------|
D|--11------------x-x--7--7---7--7-/-9--9---9--|
A|--11------------x-x--7--7---7--7-/-9--9---9--|
E|--9------------------5--5---5--5-/-7--7---7--|

VERSE:

  C#m                 A
  hitogomi ni hajikareta koe
      E            B
  tsuyosa wo motomeru namida ni
   C#m                  A
  unmei to bokura tsunaida CHAIN
    E          B
  hagayui RING wo egaita


REFRAIN:

A                 C#m
  boku ga miemasu ka?
           A               B
  koe ga..   todoite imasu ka?

  ima...


CHORUS:

  E
  mirai souzou chouetsu wo
G#m                             C#m       A
  kono te de kirisaite yukou zoukei he saisei he
  E
  mabuta wo akaku moyashite
 G#m                            C#m    A
  kono me ni tobikonda sekai sousei chouetsu shite


SOLO:
     (Just Do this Chords)

     C#m---A-----E-----B----

e|---------------------------------------------------------|
B|---------------------------------------------------------|
G|--9--9--9--9--9---8--------------------------------------|
D|--x--x--x--x--x---x--------------------------------------|
A|--7--7--7--7--7---6---9---11~~~--------------------------|
E|--------------------------------------------2-----4~~~~--|


                                     AH
e|----------------------------------------|
B|----------------------------------------|
G|--------x--x--9--8----------------------|
D|--------x--x--x--x--x-------------------|
A|--------x--x--7--6--x--9--11~---7--9~---|
E|----------------------------------------|

                                            Tap
                       AH--------AH--------------------|         AH
e|-----------------------------------------------------|
B|-----------------------------------------------------|
G|-/9--9--9--9--9--8---------9.---------11==b^======---|
D|--x--x--x--x--x--x------9.---------------------------|
A|-/7--7--7--7--7--6---7.--------7~--------------------|
E|-----------------------------------------------------|


e|----------------------------|
B|----------------------------|
G|--11brp9---8h9-p8-----------|
D|--------------------9~~-----|
A|----------------------------|
E|----------------------------|

    PM----PM                PM------------------------|PM
e|-------------7b^===~~---------------9br==p7~~~------|
B|----------------------------------------------------|
G|--8--9--8-----------------8--9--8-------------------|
D|----------------------------------------------------|
A|----------------------------------------------------|
E|----------------------------------------------------|

            -----Whammy Bar----------------------------------|
e|-----------------------------------------------------------|
B|--10--9---9h10---------------------------------------------|
G|----------------8h9-------------6--6/-8--8/-9--9---11/-13--|
D|---------------------7h9--------x--x--x--x--x--x---x---x---|
A|--------------------------7h9---4--4/-6--6/-7--7---9-/-11--|
E|-----------------------------------------------------------|


e|---------------------------------------------------|
B|-----------------9b^========--9--------------------|
G|--11---9---11----11b========-----11b=====r11~------|
D|--x----x---x---------------------------------------|
A|--9----7---9---------------------------------------|
E|---------------------------------------------------|


BRIDGE:

  A
  rensa suru rasen no gankyou

  hakujyaku to naru kokoro
         C#m
  hikari wo..... negai wo.....
A
  Kousa suru ishiki no naka de
                               B
  yuhatsu suru kimi he no omoi wo koete


CHORUS:

  E
  mirai sousou chouetsu wo
G#m                        C#m       A
  egaite ima shoudou wo zoukei he saisei he
 E
  POCKET nejikonda te wa
 G#m                       C#m        A
  nandatte tsukameru sa sousei he kakusei he

 E
  omoi wa kono sora takaku
 G#m                         C#m       A
  negai ga bokura tsunaida unmei wo choetsu shite
 E
  mirai eigou kyoumetsu wo
 G#m                        C#m       A
  daite some agete ikou kyoumei he mirai he


OUTRO:
     : Repeat 2x

    C#m                A             B
e|---------------------------------------------|
B|---------------------------------------------|
G|-----------x-x--x-x--------------------------|
D|--11--11---x-x--x-x--7--7---7--7-/-9--9---9--|
A|--11--11---x-x--x-x--7--7---7--7-/-9--9---9--|
E|--9---9--------------5--5---5--5-/-7--7---7--|

    C#m                A             B
e|---------------------------------------------|
B|---------------------------------------------|
G|----------9p8---x-x--------------------------|
D|--11------------x-x--7--7---7--7-/-9--9---9--|
A|--11------------x-x--7--7---7--7-/-9--9---9--|
E|--9------------------5--5---5--5-/-7--7---7--|


OUTRO: FASTEN PART
     : Repeat 2x


    PM  PM    PM PM
e|---------------------------------------------|
B|---------------------------------------------|
G|---------------------------------------------|
D|--6--6--6---6--6--6--7--7---7--7-/-9--9---9--|
A|--4--4--4---4--4--4--7--7---7--7-/-9--9---9--|
E|---------------------5--5---5--5-/-7--7---7--|

    PM  AH   PM AH
e|---------------------------------------------|
B|---------------------------------------------|
G|---------------------------------------------|
D|--6--------6---------7--7---7--7-/-9--9---9--|
A|--4--4-----4--6\-4---7--7---7--7-/-9--9---9--|
E|---------------------5--5---5--5-/-7--7---7--|

END:

    A                 (C#m)
e|--------------------------------------------|
B|--------------------------------------------|
G|--------------------------------------------|
D|--7-----------------------------------------|
A|--7-----------------------------------------|
E|--5----------\b====\8b(9)====---------------|


Tablature Legend:

  h      -- hammer on
  p      -- pull off
  b      -- bend
  r      -- bend release
  ===    -- bend hold or maintain
  ^      -- bend a little, or dec/increase the bend slightly
  /,\    -- slide (toward, forward)
  ~      -- let ring
  x      -- Muted string then pluck it
  AH     -- Artificial Harmonic
  TH     -- Tap Harmonic
  NH     -- Natural Harmonic
  PM     -- Palm Muted
  T      -- Tap
  t      -- Use your picking finger to create pull-off's, hammer-on's
  Tr     -- Trill

                Calinan Davao City, Phillipines...
                This is for all ANIME Fanatics Out There...

                =====ENJOYYYYYY======





Comments


Popular Mucc tabs & chords
Kimi Ni Sachi Are Bass Tabs
Gekkou Chords
Isho Chords
Kinsenka Chords
Nageki No Kane Chords
Sanbika Chords
Tonbi Chords
Kagayaku Sekai Tabs
Dog Ukulele
Gerbera Ukulele


Song lyrics



↑ Back to top | Tablatures and chords are parodies/interpretations of the original songs. You may use it for private study, scholarship, research or language learning purposes only
© 2014 AZChords.com Contact us | Privacy policy | DMCA | Add/correct tabs | Request tabs | Top 50 tabs