» » »

Going For Adds Bass tabs (ver.1)

Artists:  A B C D E F G H I J K L M N O P Q R S T U V W X Y Z # 

Going For Adds Bass tabs (ver.1)

Moving Units
Rating:
0/5 (0 votes)

Hard to play? Try these video lessons and learn fast.
                Album:Dangerous Dreams

Verse
G|---6-6-6-6-6-6-6--9----|
D|---------------------9-|
A|--4-4-4-4-4-4-4-7------|
E|--------------------7--|

Chorus
G|---------------------------|
D|---------------------------|
A|-4-4-4-4-4-4-4-7-7-7-7-7-7-|
E|---------------------------|

Chorus (Pt.2)
G|--11-11-11-11-11-11--9----|
D|------------------------9-|
A|-9--9--9--9--9--9--7------|
E|-----------------------7--|

This is All It Really Is
            
Hard to play? Try these video lessons and learn fast. | Correct




comments powered by Disqus
↑ Back to top | Tablatures and chords are parodies/interpretations of the original songs. You may use it for private study, scholarship, research or language learning purposes only