» » »

Moving Units, Going For Adds Tabs (ver.1)

Artists:  A B C D E F G H I J K L M N O P Q R S T U V W X Y Z # 

Going For Adds Tabs (ver.1)

Moving Units Tabs
 Rating:
3.8/5 (5 votes)
Going For Adds lessons Tabs too difficult? Try these video lessons and learn fast
                -----------------------------------------------------------------
GOING FOR ADDS - Moving Units
-----------------------------------------------------------------

Tuning:regs!

okay this is a really good song by moving units, but be prepared to do ALOT of sliding. 
fingers will be killing you if you dont have good enough calises.

MAIN RIFF / INTRO
e|-----------------------------------------------------------------|
B|-----------------------------------------------------------------|
G|-----------------------------------------------------------------|
D|-----------------------------------------------------------------|
A|--22-4---16\44/16---16/44\16--16/44\16---------------------------|
E|-----------------------------------------------------------------|x7

VERSE
e|------------------------------------------------------------------|
B|------------------------------------------------------------------|
G|------------------------------------------------------------------|
D|------------------------------------------------------------------|
A|----22-4----------------------------------------------------------|
E|------------------------------------------------------------------|
everybodys in the disco, 22-4 like that.

CHOURS
e|---------------------------------------------------------------|
B|---------------------------------------------------------------|
G|---------------------------------------------------------------|
D|---------------------------------------------------------------|
A|-----44-444---77 777 --44-444---77-777-77---88888888 77777 22 4|
E|---------------------------------------------------------------|
the rythem there is a little bit off, but just listen to the song and youll nail it.

Then the main riff and chours, then do a little trill sliding up and down on the B and G strings
then the main riff, chours and at the end youll hear a few power chords that play like this
e|------------------------------------------------------------------|
B|------------------------------------------------------------------|
G|----6--5----------------------------------------------------------|
D|----6--5----------------------------------------------------------|
A|----4--2----------------------------------------------------------|
E|------------------------------------------------------------------|
get that rythem for your self. its not that hard.

so yeah this is my first tab and it probably looks like sh*t, but thats okay! i guess?


| /  slide up
| \  slide down
| h  hammer-on
| p  pull-off
| ~  vibrato
| +  harmonic
| x  Mute note
            
Submit corrections

comments powered by Disqus
↑ Back to top | Moving Units Tabs for Going For Adds. Lyrics for acoustic guitar and electric guitar. Tablatures and chords are parodies/interpretations of the original songs. You may use it for private study, scholarship, research or language learning purposes only