» » »

Sacrifice Bass tabs (ver.1)

Artists:  A B C D E F G H I J K L M N O P Q R S T U V W X Y Z # 

Sacrifice Bass tabs (ver.1)

Motorhead
Rating:
0/5 (0 votes)

Hard to play? Try these video lessons and learn fast.
                Tune down 1/2 step

Intro
F#|---------------------|
C#|---------------------|
G#|---------------------|
D#|--0-0-0-0-0-0-0-0-0--|


Bridge (0:21)
F#|----------------------|-------------|
C#|-->-------------------|-------------|
G#|--3-3-3---5-----------|-------------|
D#|-------------5-5-5-5--|-0-0-0-0-0-0-|
I think you're nuts...

Chorus (1:27)
F#|----------------------------|
C#|----------------------------|
G#|--7------5-7-----5-7--------|
D#|----5-7------5-7-----5-7----|
Sacrifice... sacrifice...

Guitar Solo (3 times) (1:28)
F#|------------------------------------|
C#|------------------------------------|
G#|------------1---1---1---1--2-2-2-2--|
D#|--3-3-3-3-3---3---3---3-------------|

Guitar Solo (Last time) (1:50)
F#|---------------------------------------|
C#|---------------------------------------|
G#|------------1---1---1---1-------1---1--|
D#|--3-3-3-3-3---3---3---3---3-3-3---3----|


Really easy song!

If you have any suggestions, comments, questions, 
or ICQ me at 68411677

I can speak English, Portuguese and (a little) Spanish
Thank you
            
Hard to play? Try these video lessons and learn fast. | Correct




comments powered by Disqus
↑ Back to top | Tablatures and chords are parodies/interpretations of the original songs. You may use it for private study, scholarship, research or language learning purposes only