» » »

Motorhead, Orgasmatron Tabs (ver.1)

Artists:  A B C D E F G H I J K L M N O P Q R S T U V W X Y Z # 

Orgasmatron Tabs (ver.1)

Motorhead Tabs
 Rating:
4/5 (4 votes)
Orgasmatron lessons Tabs too difficult? Try these video lessons and learn fast
1
                Chords
   E5   A5   C#5   F#5   C5   D5
|---------------------------------------------------------------------------|
|---------------------------------------------------------------------------|
|---------------------------------------------------------------------------|
|--------2----6-----------5----7--------------------------------------------|
|--7-----0----4-----4-----3----5--------------------------------------------|
|--0----------------2-------------------------------------------------------|

E5
I am the one, Orgasmatron, the outstretched grasping hand
My image is of agony, my servants rape the land
A5
Obsequious and arrogant, clandestine and vain
E5
Two thousand years of misery, of torture in my name
C#5                       F#5
Hypocrisy made paramount, paranoia the law
E5                          C5        D5           E5
My name is called religion, sadistic, sacred whore


I twist the truth, I rule the world, my crown is called deceit
I am the emperor of lies, you grovel at my feet
I rob you and I slaughter you, your downfall is my gain
And still you play the sycophant and rebel in your pain
And all my promisses are lies, all my love is hate
I am the politician, and I decide your fate


SOLO

|---12------|--12--13--12--10--|----------------------------------------
|---15(B)---|------------------|--12--13--12--10--12--10----------------
|-----------|-[    2 times   ]-|--------------------------12--11--9--9--
|-[4 times]-|------------------|----------------------------------------
|-----------|------------------|----------------------------------------
|-----------|------------------|----------------------------------------

|--------------------------------|-----------------|-------------------------|
|--------------------------------|-[   2 times   ]-|-------------------------|
|--9h10p9------------------------|-----------------|--------3----------------|
|----------11--9--6h7p6----------|--6--6--4/6--6---|-----2--------2----------|
|------------------------7--8--7-|--4--4--2/4--4---|--1--------1-------------|
|--------------------------------|-----------------|-----------------0-------|

|----------------------------------------------------------------------------|
|----------------------------------------------------------------------------|
|----------------------------9h11p9--------------3---------------------------|
|--6--6--4/6-11-11--9/11-------------11-------2--------2-----6\4--4/6/9\6----|
|--4--4--2/4--9--9--7/9--------------------1--------1--------4\2--2/4/7\4----|
|---------------------------[  5 times ]------------------0------------------|


|----------------------------------------------------------------------------|
|----------------------------------------------------------------------------|
|----------------------------------------------------------------------------|
|--------------------------5--7----------------------------------------------|
|--7--7-7--7--7---7--7--7--3--5----------------------------------------------|
|--0--0-0--0--0---0--0--0----------------------------------------------------|


I march before a martyred world, an army for the fight
I speak of great heroic days, of victory and might
I hold a banner drenched in blood, I urge you to be brave
I lead you to your destiny, I lead you to your grave
Your bones will build my palaces, your eyes will stud my crown
For I am Mars the god of war, and I will cut you down.
            
Submit corrections

comments powered by Disqus
↑ Back to top | Motorhead Tabs for Orgasmatron. Lyrics for acoustic guitar and electric guitar. 1 Tablatures and chords are parodies/interpretations of the original songs. You may use it for private study, scholarship, research or language learning purposes only