>
 >
God Save The Queen 1

God Save The Queen 1 Guitar Tabs

Motorhead - God Save The Queen 1 chords, tabs, tablatures, lyrics

Guitar lessons | Add/correct | Request | Top 50 tabs Artists:  A B C D E F G H I J K L M N O P Q R S T U V W X Y Z 0-9

God Save The Queen 1 Guitar Tabs – Motorhead

CD, Sheet music, Poster

Do you like God Save The Queen 1? Share with your friends now
Bass TabsTabsTabs v2
Motörhead - God save the queen

there wasnt a secent tab fer this on here so i went made this 1...hope ya like it

Intro:
e----------------|
B----------------|
G----------------| 2X
D--6/7-7-7-7-7---|
A--6/7-7-7-7-7---|
E--4/5-5-5-5-5---|

e------------------------|
B------------------------|
G------------------------|
D--6/7-6/7--6/7-7-7-7-7--|
A--6/7-6/7--6/7-7-7-7-7--|
E--4/5-4/5--4/5-5-5-5-5--|

Verse:
e---------------------------|
B---------------------------|
G---------------------------| 4X
D--6/7-7-7-7-7---7-6-7-6----|
A--6/7-7-7-7-7---5-4-5-4----|
E--4/5-5-5-5-5--------------|
     * * * * *


e---------------------------|
B---------------------------|
G---------------------------|
D--6/7-7-7-7-7--6/7-7-7-7-7-|
A--6/7-7-7-7-7--6/7-7-7-7-7-|
E--4/5-5-5-5-5--4/5-5-5-5-5-|


Chorus:
e------------------------------------------|
B------------------------------------------|
G----9--9----------8/9--9--9--8/9--9--9----|
D----9--9--9--9----8/9--9--9--8/9--9--9----|
A----7--7--9--9----6/7--7--7--6/7--7--7----|
E----------7--7----------------------------|


Solo:
e--2-2-2-------2-2-------------4-4-5h4---2----|
B--2-2-2-------2-2-------------4-4-4-----2----|
G----------4b-------4b--4--0---4-4-4----------|
D---------------------------------------------|
A---------------------------------------------|
E---------------------------------------------|


Outro:
e---------------------------------------|
B---------------------------------------|
G----7-------6/7--7-7--6----4-----------| 2X
D----7-------6/7--7-7--6----4-----------|
A----5-------4/5--5-5--4----2-----------|
E---------------------------------------|

e---------------------------|
B---------------------------|
G---------------------------|
D--6/7-7-7-7-7--6/7-7-7-7-7-|
A--6/7-7-7-7-7--6/7-7-7-7-7-|
E--4/5-5-5-5-5--4/5-5-5-5-5-|


Song Structure:

Intro:      1X
Verse:      3X
Chorus:     4X
Verse:      3X
Chorus:     4X
Verse:      1X
Solo:       2X
Verse:      2X
Outro:      4X





Comments


Popular Motorhead tabs & chords
Iron Horse Born To Lose Bass Tabs
Orgasmatron 2 Bass Tabs
Teach You How To Sing The Blues Bass Tabs
The Game 3 Bass Tabs
Wake The Dead 1 Bass Tabs
I Ain't No Nice Guy Chords
Born To Raise Hell 1 Tabs
In The Year Of The Wolf Tabs
Stone Dead Forever Tabs
Ace Of Spades Ukulele


Song lyrics



↑ Back to top | Tablatures and chords are parodies/interpretations of the original songs. You may use it for private study, scholarship, research or language learning purposes only
© 2014 AZChords.com Contact us | Privacy policy | DMCA | Add/correct tabs | Request tabs | Top 50 tabs