» » »

Suedehead Chords (ver.2)

Artists:  A B C D E F G H I J K L M N O P Q R S T U V W X Y Z # 

Suedehead Chords (ver.2)

Morrissey
Rating:
0/5 (0 votes)
Tabs too difficult? Try these video lessons and learn fast.
                Intro:

A      Bm      G      D      2 times(during the solo)


e  |9-9-9------------12-12-12-----------------------------------------|
B  |------10-10-10/12---------12-12-12--12-10-----------------8/10-10-|
G  |------------------------------------------12-12-9-12-12-9---------|
D  |------------------------------------------------------------------|
A  |------------------------------------------------------------------|
E  |------------------------------------------------------------------|


e  |9-9-9------------12-12-12------------------------------------------|
B  |------10-10-10/12---------12-12-12--12-10-----------------10-10/12-|
G  |------------------------------------------12-12-9-12-12-9----------|
D  |-------------------------------------------------------------------|
A  |-------------------------------------------------------------------|
E  |-------------------------------------------------------------------|

A      Bm      G      D      2 times


E                    D
         Why do you come here?

     E                   D
And why-y-y, why do you hang around?

F#m    E      D
I'm    so    sorry

E           F#m    E      D
Iaaaaaii    I'm    so    so-oh-oh-oh-oh-oh

A              Bm                   G                    D
    Why do you come here, when you know it makes things hard for me?

          A        Bm         G       D
When you know, oh why do you come?

E                 D
      Why do you telephone?
      E               D
And why-y-y, send me silly notes?


F#m    E      D
I'm    so    sorry

E           F#m    E      D
Iaaaaaii    I'm    so    so-oh-oh-oh-oh-oh


A              Bm                   G                    D
    Why do you come here, when you know it makes things hard for me?

          A        Bm         G       D
When you know, oh why do you come?

G       F#m      G        D

E                          D
       You have to sneak into my room, just to read my diary

          E
It was a justicy, justicy

                                       D
all the things you knew I'd written about you


Oh so many illustrations oh but


F#m    E        D        E  F#m  E 
          D
I'm    so very sickened, I, I am so sickened now

          A             Bm
It was a good lay, good lay,

          G              D
It was a good lay, good lay,

          A              Bm       G
It was a good lay, good lay, oh oh


(Repeat till fade)
            
Tabs too difficult? Try these video lessons and learn fast.


comments powered by Disqus
↑ Back to top | Tablatures and chords are parodies/interpretations of the original songs. You may use it for private study, scholarship, research or language learning purposes only