» » »

D.F.A Tabs (ver.2)

Artists:  A B C D E F G H I J K L M N O P Q R S T U V W X Y Z # 

D.F.A Tabs (ver.2)

Monster Squad
Rating:
0/5 (0 votes)

Hard to play? Try these video lessons and learn fast.
                -------------------------------------------------------------------------------
                             D.F.A. - Monster Squad
-------------------------------------------------------------------------------


Tuning: Standar

*  Ring
+  Harmonic

Listen to the song to get the rhythm

Intro
e|------------------------------------|
B|------------------------------------|
G|-9-9999--10-10-9-9999--5555-4-5-6-7-|
D|-9-9999--10-10-9-9999--5555-4-5-6-7-| x4
A|-7-7777--8--8--7-7777--3333-2-3-4-5-|
E|------------------------------------|
     ++++          ++++
     
Verse
        x1                x3           
e|--------------|--------------------|----|
B|--------------|--------------------|----|
G|-99999--22222-|-99999999-5555-2222-|-9*-|
D|-99999--22222-|-99999999-5555-2222-|-9*-|
A|-77777--00000-|-77777777-3333-0000-|-7*-|
E|--------------|--------------------|----|

You come to our town, and walk down our streets
You look like a scum from your head to your feet
You believe "white power", you say "white pride"
We'll make you wish you stayed inside
Say your a skinhead, we know it's not true
You're just a f*cking bonehead, and we're after you
When we first saw you, ya gotta boot to the head
next thing you know you're gonna end up dead
Cuz we don't f*ck around

Chorus
e|------------------------------------|
B|------------------------------------|
G|-9-9999--10-10-9-9999--5555-4-5-6-7-|
D|-9-9999--10-10-9-9999--5555-4-5-6-7-| x4
A|-7-7777--8--8--7-7777--3333-2-3-4-5-|
E|------------------------------------|
     ++++          ++++

We don't f*ck around!
We don't f*ck around!
We don't f*ck around!
We don't f*ck around!

Verse
        x1                x3           
e|--------------|--------------------|----|
B|--------------|--------------------|----|
G|-99999--22222-|-99999999-5555-2222-|-9*-|
D|-99999--22222-|-99999999-5555-2222-|-9*-|
A|-77777--00000-|-77777777-3333-0000-|-7*-|
E|--------------|--------------------|----|

Just you try talk sh*t
Say it to our face and you're gonna get it
You act real hard to our face
It was your blood that spilt that day
Ain't so tough when you get hit
Sending us e-mails and talking sh*t
Next time we see you it's no hello
Just to your face with a deadly blow
Cuz we don't f*ck around

Chorus
e|------------------------------------|
B|------------------------------------|
G|-9-9999--10-10-9-9999--5555-4-5-6-7-|
D|-9-9999--10-10-9-9999--5555-4-5-6-7-| x4
A|-7-7777--8--8--7-7777--3333-2-3-4-5-|
E|------------------------------------|
     ++++          ++++

We don't f*ck around!
We don't f*ck around!
We don't f*ck around!
We don't f*ck around!

Verse
        x1                x3           
e|--------------|--------------------|----|
B|--------------|--------------------|----|
G|-99999--22222-|-99999999-5555-2222-|-9*-|
D|-99999--22222-|-99999999-5555-2222-|-9*-|
A|-77777--00000-|-77777777-3333-0000-|-7*-|
E|--------------|--------------------|----|

You come to our town, and walk down our streets
You look like a scum from your head to your feet
You believe "white power", you say "white pride"
We'll make you wish you stayed inside
Say your a skinhead, we know it's not true
You're just a f**king bonehead, and we're after you
When we first saw you, ya gotta boot to the head
next thing you know you're gonna end up dead
Cuz we don't f**k around

Chorus
             x2                                x2
e|----------------------------|------------------------------------|
B|----------------------------|------------------------------------|
G|-9---10-10-9---5555-4-5-6-7-|-9-9999--10-10-9-9999--5555-4-5-6-7-|
D|-9---10-10-9---5555-4-5-6-7-|-9-9999--10-10-9-9999--5555-4-5-6-7-|
A|-7---8--8--7---3333-2-3-4-5-|-7-7777--8--8--7-7777--3333-2-3-4-5-|
E|----------------------------|------------------------------------|
                                  ++++          ++++                

We don't f*ck around!
We don't f*ck around!
We don't f*ck around!
We don't f*ck around!

Outro
e|----------------------------------------------------------|
B|----------------------------------------------------------|
G|-999999999-999999999-999999999-999999999------------------|
D|-999999999-999999999-999999999-999999999----4*-(feedback)-|
A|-777777777-777777777-777777777-777777777------------------|
E|----------------------------------------------------------|

===============================================================================
            
Hard to play? Try these video lessons and learn fast. | Correct




comments powered by Disqus
↑ Back to top | Tablatures and chords are parodies/interpretations of the original songs. You may use it for private study, scholarship, research or language learning purposes only