» » »

Mondo Generator, So High, So Low Bass tabs (ver.2)

Artists:  A B C D E F G H I J K L M N O P Q R S T U V W X Y Z # 

So High, So Low Bass tabs (ver.2)

Mondo Generator Tabs
 Rating:
4/5 (4 votes)
So High, So Low lessons Tabs too difficult? Try these video lessons and learn fast
                Intro
G--------------------|
D--------------------|
A-7-7-7---7-7-7----7-|
E--------------------|

Verse            x8                 x2                  x5
G------------------|------------------|------------------|-----------------|
D------------4--4--|-5-5-5-5----4---4-|----------4---4---|-5-5-5-5---4---4-|
A-7-7-7-7--5---5---|----------5---5---|-7-7-7-7----5---5-|---------5---5---|
E------------------|------------------|------------------|-----------------|

Chorus                                                         
G----------------------------------------------------------------|
D-2-2-2-2-2-2-2-2-----------------2-2-2-2-2-2-2-2----------------|
A-----------------3-3-3-3-3-3-3-3------------------0-0-0-1--1--2-|
E----------------------------------------------------------------|

G----------------------------------------------------------------|
D-2-2-2-2-2-2-2-2-----------------2-2-2-2-2-2-2-2----------------|
A-----------------3-3-3-3-3-3-3-3------------------0-0-0-1--1--2-|
E----------------------------------------------------------------|

Verse            x6                 x2                  
G------------------|------------------|
D------------4--4--|-5-5-5-5----4---4-|
A-7-7-7-7--5---5---|----------5---5---|
E------------------|------------------|

Chorus
G----------------------------------------------------------------|
D-2-2-2-2-2-2-2-2-----------------2-2-2-2-2-2-2-2----------------|
A-----------------3-3-3-3-3-3-3-3------------------0-0-0-1--1--2-|
E----------------------------------------------------------------|

G-------------------------5-3------------------------------------|
D-2-2-2-2-2-2-2-2-------------5-3-2-2-2-2-2-2-2-2----------------|
A-----------------3-3-3-3--------------------------0-0-0-1--1--2-|
E----------------------------------------------------------------|

Bridge                                 x6
G----------------------------------------|
D-2-2-2--2-2-2---------------------------|
A---------------1----1---0---0---3---3---|
E----------------------------------------|

Chorus
G----------------------------------------------------------------|
D-2-2-2-2-2-2-2-2-----------------2-2-2-2-2-2-2-2----------------|
A-----------------3-3-3-3-3-3-3-3------------------0-0-0-1--1--2-|
E----------------------------------------------------------------|

G-------------------------5-3------------------------------------|
D-2-2-2-2-2-2-2-2-------------5-3-2-2-2-2-2-2-2-2----------------|
A-----------------3-3-3-3--------------------------0-0-0-1--1--2-|
E----------------------------------------------------------------|

Verse            x6                 x2                  
G------------------|------------------|------------------|
D------------4--4--|-5-5-5-5----4---4-|----------4---4---|
A-7-7-7-7--5---5---|----------5---5---|-7-7-7-7----5---5-|
E------------------|------------------|------------------|
            
Submit corrections

comments powered by Disqus
↑ Back to top | Mondo Generator Bass for So High, So Low. Lyrics for acoustic guitar and electric guitar. Tablatures and chords are parodies/interpretations of the original songs. You may use it for private study, scholarship, research or language learning purposes only