» » »

Mondo Generator, F.Y.I'm Free Tabs (ver.1)

Artists:  A B C D E F G H I J K L M N O P Q R S T U V W X Y Z # 

F.Y.I'm Free Tabs (ver.1)

Mondo Generator Tabs
 Rating:
4/5 (4 votes)
F.Y.I'm Free lessons Tabs too difficult? Try these video lessons and learn fast
1
                Intro                       x4
E-----------------------------|
B-----------------------------|
G-----------------------------|
D-----------------------------|
A-----------3---1-1-1------3--|
E-3-3-3--1-------------1------|


Main Riff                   x4
E-----------------------------|
B-----------------------------|
G-----------5---3-3-3------5--|
D-5-5-5--3--5---3-3-3--3---5--|
A-5-5-5--3--3---1-1-1--3---3--|
E-3-3-3--1-------------1------|

Verse
E-------------------------------|-----------------------------|
B-------------------------------|-----------------------------|
G-3-3-3-3-3-3-3-----------------|-----------5---3-3-3------5--|
D-3-3-3-3-3-3-3-3-3-3-3-4-4-4-4-|-5-5-5--3--5---3-3-3--3---5--|
A-1-1-1-1-1-1-1-3-3-3-3-4-4-4-4-|-5-5-5--3--3---1-1-1--3---3--|
E---------------1-1-1-1-2-2-2-2-|-3-3-3--1-------------1------|

E-------------------------------|-----------------------------|
B-------------------------------|-----------------------------|
G-3-3-3-3-3-3-3-----------------|-----------5---3-3-3------5--|
D-3-3-3-3-3-3-3-3-3-3-3-4-4-4-4-|-5-5-5--3--5---3-3-3--3---5--|
A-1-1-1-1-1-1-1-3-3-3-3-4-4-4-4-|-5-5-5--3--3---1-1-1--3---3--|
E---------------1-1-1-1-2-2-2-2-|-3-3-3--1-------------1------|

Chorus
E----------------------------------------------------|
B----------------------------------------------------|
G-3-3-3-3-3-3-3------------------7-7-7-7-7-7-7-7-7-7-|
D-3-3-3-3-3-3-3--3-3-3-3-4-4-4-4-7-7-7-7-7-7-7-7-7-7-|
A-1-1-1-1-1-1-1--3-3-3-3-4-4-4-4-5-5-5-5-5-5-5-5-5-5-|
E----------------1-1-1-1-1-1-1-1---------------------|

Main Riff                   x4
E-----------------------------|
B-----------------------------|
G-----------5---3-3-3------5--|
D-5-5-5--3--5---3-3-3--3---5--|
A-5-5-5--3--3---1-1-1--3---3--|
E-3-3-3--1-------------1------|

Verse 
E-------------------------------|-----------------------------|
B-------------------------------|-----------------------------|
G-3-3-3-3-3-3-3-----------------|-----------5---3-3-3------5--|
D-3-3-3-3-3-3-3-3-3-3-3-4-4-4-4-|-5-5-5--3--5---3-3-3--3---5--|
A-1-1-1-1-1-1-1-3-3-3-3-4-4-4-4-|-5-5-5--3--3---1-1-1--3---3--|
E---------------1-1-1-1-2-2-2-2-|-3-3-3--1-------------1------|

E-------------------------------|-----------------------------|
B-------------------------------|-----------------------------|
G-3-3-3-3-3-3-3-----------------|-----------5---3-3-3------5--|
D-3-3-3-3-3-3-3-3-3-3-3-4-4-4-4-|-5-5-5--3--5---3-3-3--3---5--|
A-1-1-1-1-1-1-1-3-3-3-3-4-4-4-4-|-5-5-5--3--3---1-1-1--3---3--|
E---------------1-1-1-1-2-2-2-2-|-3-3-3--1-------------1------|

Bridge/Solo           x4
E-----------------------|
B-----------------------|
G-7-7-7-8-7-5-5-5-5-----|
D-7-7-7-8-7-5-5-5-5-5-6-|
A-7-7-7-6-5-3-3-3-3-5-6-|
E-5-5-5-------------3-4-|

                                                   x4
E----------------------------------------------------|---------|
B----------------------------------------------------|---------|
G-----------------------5--3-3-3-3-3-3-3-3-3-3-3---3-|---------|
D-5-5-5-5-5-5-5-5-5-5---5--3-3-3-3-3-3-3-3-3-3-3---3-|-6-6-8-8-|
A-5-5-5-5-5-5-5-5-5-5---3--1-1-1-1-1-1-1-1-1-1-1---3-|-6-6-8-8-|
E-3-3-3-3-3-3-3-3-3-3------------------------------1-|-4-4-6-6-|

Verse
E-------------------------------|-----------------------------|
B-------------------------------|-----------------------------|
G-3-3-3-3-3-3-3-----------------|-----------5---3-3-3------5--|
D-3-3-3-3-3-3-3-3-3-3-3-4-4-4-4-|-5-5-5--3--5---3-3-3--3---5--|
A-1-1-1-1-1-1-1-3-3-3-3-4-4-4-4-|-5-5-5--3--3---1-1-1--3---3--|
E---------------1-1-1-1-2-2-2-2-|-3-3-3--1-------------1------|

E-------------------------------|-----------------------------|
B-------------------------------|-----------------------------|
G-3-3-3-3-3-3-3-----------------|-----------5---3-3-3------5--|
D-3-3-3-3-3-3-3-3-3-3-3-4-4-4-4-|-5-5-5--3--5---3-3-3--3---5--|
A-1-1-1-1-1-1-1-3-3-3-3-4-4-4-4-|-5-5-5--3--3---1-1-1--3---3--|
E---------------1-1-1-1-2-2-2-2-|-3-3-3--1-------------1------|
            
Submit corrections

comments powered by Disqus
↑ Back to top | Mondo Generator Tabs for F.Y.I'm Free. Lyrics for acoustic guitar and electric guitar. 1 Tablatures and chords are parodies/interpretations of the original songs. You may use it for private study, scholarship, research or language learning purposes only