» » »

Mondo Generator, F.Y.I'm Free Bass tabs (ver.1)

Artists:  A B C D E F G H I J K L M N O P Q R S T U V W X Y Z # 

F.Y.I'm Free Bass tabs (ver.1)

Mondo Generator Tabs
Rating:
0/5 (0 votes)
F.Y.I'm Free lessons Tabs too difficult? Try these video lessons and learn fast
                Intro                       x4
G-----------------------------|
D-----------------------------|
A-----------------------------|
E-----------------------------|

Main Riff                   x4
G-----------------------------|
D-----------------------------|
A-----------3---1-1-1------3--|
E-3-3-3--1-------------1------|

Verse
G-------------------------------|-----------------------------|
D-------------------------------|-----------------------------|
A-1-1-1-1-1-1-1-----------------|-----------3---1-1-1------3--|
E---------------1-1-1-1-2-2-2-2-|-3-3-3--1-------------1------|

G-------------------------------|-----------------------------|
D-------------------------------|-----------------------------|
A-1-1-1-1-1-1-1-----------------|-----------3---1-1-1------3--|
E---------------1-1-1-1-2-2-2-2-|-3-3-3--1-------------1------|

G----------------------------------------------------|
D----------------------------------------------------|
A-1-1-1-1-1-1-1------------------5-5-5-5-5-5-5-5-5-5-|
E----------------1-1-1-1-1-1-1-1---------------------|

Main Riff                   x4
G-----------------------------|
D-----------------------------|
A-----------3---1-1-1------3--|
E-3-3-3--1-------------1------|

Verse 
G-------------------------------|-----------------------------|
D-------------------------------|-----------------------------|
A-1-1-1-1-1-1-1-----------------|-----------3---1-1-1------3--|
E---------------1-1-1-1-2-2-2-2-|-3-3-3--1-------------1------|

G-------------------------------|-----------------------------|
D-------------------------------|-----------------------------|
A-1-1-1-1-1-1-1-----------------|-----------3---1-1-1------3--|
E---------------1-1-1-1-2-2-2-2-|-3-3-3--1-------------1------|

Bridge/Solo           x4
G-----------------------|
D-----------------------|
A-------6-5-3-3-3-3-----|
E-5-5-5-------------3-4-|
                                                   x4
G----------------------------------------------------|---------|
D----------------------------------------------------|---------|
A-----------------------3--1-1-1-1-1-1-1-1-1-1-1-----|---------|
E-3-3-3-3-3-3-3-3-3-3------------------------------1-|-4-4-6-6-|

Verse
G-------------------------------|-----------------------------|
D-------------------------------|-----------------------------|
A-1-1-1-1-1-1-1-----------------|-----------3---1-1-1------3--|
E---------------1-1-1-1-2-2-2-2-|-3-3-3--1-------------1------|

G-------------------------------|-----------------------------|
D-------------------------------|-----------------------------|
A-1-1-1-1-1-1-1-----------------|-----------3---1-1-1------3--|
E---------------1-1-1-1-2-2-2-2-|-3-3-3--1-------------1------|
            

comments powered by Disqus
↑ Back to top | Mondo Generator Bass for F.Y.I'm Free. Lyrics for acoustic guitar and electric guitar. Tablatures and chords are parodies/interpretations of the original songs. You may use it for private study, scholarship, research or language learning purposes only