» » »

Molly Hatchet, Beatin The Odds Tabs (ver.1)

Artists:  A B C D E F G H I J K L M N O P Q R S T U V W X Y Z # 

Beatin The Odds Tabs (ver.1)

Molly Hatchet Tabs
 Rating:
4/5 (4 votes)
Beatin The Odds lessons Tabs too difficult? Try these video lessons and learn fast
                
Intro
Riff A
E----------------------------------------------------|
B----------------------------------------------------|
G---------------------------------------------7\-(5)-|
D--2-x-4p2---5---4p2---------2-x-4p2---5------7\-(5)-| repeat
A--0-x-----0---0-----3h4-3h4-0-x-----0-----00-5\-(3)-|
E----------------------------------------------------|
       PM - - - - - |           PM - - - - - |
  *Notes in parentheses are played every other time

Chorus
Riff B
E-----------------------------------|
B-----------------------------------|
G--5-2-------5-2-------5-2-7---7-5--|
D--5-2-------5-2-------5-2-7---7-5--| repeat
A--3-0-------3-0-------3-0-5---5-3--|
E------0-3p0-----0-3p0--------------|

During the solos, rhythm plays Riff A. For solos, try A Pent, 12th & 15th position.
            
Submit corrections

comments powered by Disqus
↑ Back to top | Molly Hatchet Tabs for Beatin The Odds. Lyrics for acoustic guitar and electric guitar. Tablatures and chords are parodies/interpretations of the original songs. You may use it for private study, scholarship, research or language learning purposes only