» » »

Pit Tabs (ver.1)

Artists:  A B C D E F G H I J K L M N O P Q R S T U V W X Y Z # 

Pit Tabs (ver.1)

Moe
Rating:
5/5 (3 votes)

Hard to play? Try these video lessons and learn fast.
                i have the solo's to but i'm to lazy to type them out.. i'll post them eventually

intro
e|---------------|
B|---------------|
G|-0h2-0---------|
D|-------2-0-----|
A|---------------|
E|-----------3-2-|

main riff
e|---------------|--------------|---------------|-----------------------|
B|---------------|--------------|---------------|-----------------------|
G|---0-----------|---0----------|---0-----------|-0h2-0-----------------|
D|-----2-0---0-2-|-----2-0---0~-|-----2-0---0-2-|-------2-0-2-0---------|
A|---------2-----|---------2----|---------2-----|---------------2-0-----|
E|-0-------------|-0------------|-0-------------|-------------------3-2-|

chorus
e|----------------------|-----------------------|
B|----------------------|-----------------------|
G|-9~----9~--7----9~----|-0h2-0-----------------|
D|-9~----9~--7----9~----|-------2-0-2-0---------|
A|-7~----7~--5----7~----|---------------2-0-----|
E|----------------------|-------------------3-2-|

verse
e|------------------------------------|
B|------------------------------------|
G|-7-7-7-7--6-6-6-6-----------4-4-4-4-|
D|-7-7-7-7--6-6-6-6--5-5-5-5--4-4-4-4-|
A|-5-5-5-5--4-4-4-4--5-5-5-5--2-2-2-2-|
E|-------------------3-3-3-3----------|

after the verse the intro lick is played then chorus then a solo using swelling.. or i
thats what its called.....

it's easiest to do with a guitar with a pick-up switch, such as an SG or a Les Paul, and
what you do is turn your volume down on one of your pick-ups and set the your switch to
pick-up then play the note and slowly turn up the volume then then back down again then 
the next note and turn it up and so on. it may seem complicated or maybe i just
it horribly.. but still its a cool technique.

solo
e|-------10-11--8-10-7----|-------10-16--18-15-|
B|----12---------------9--|----12--------------|
G|-12---------------------|-12-----------------|
D|------------------------|--------------------|
A|------------------------|--------------------|
E|------------------------|--------------------|


e|-6-----6-----6------7-----7-----7------6-----6-----6-------|
B|-6-----6-----6------7-----7-----7------6-----6-----6-------|
G|---5-5---5-5---5-5----6-6---6-6---6-6----5-5---5-5---5-5---|
D|-----------------------------------------------------------|
A|-----------------------------------------------------------|
E|-----------------------------------------------------------|
(each one is actually played once with a delay pedal, but this is tabbed out for the
for those without)


e|---------------|--------------|---------------|-----------------------|
B|---------------|--------------|---------------|-----------------------|
G|---3-----------|---3----------|---3-----------|-3h5-3-----------------|
D|-----5-3---3-5-|-----5-3---3~-|-----5-3---3-5-|-------5-3-5-3---------|
A|---------5-----|---------5----|---------5-----|---------------5-3-----|
E|-3-------------|-3------------|-3-------------|-------------------6-5-|


e|-19-15-13-11-10-|-19-15----------|
B|----------------|-------15-------|
G|----------------|----------13-12-|
D|----------------|----------------|
A|----------------|----------------|
E|----------------|----------------|


e|----17-21-22-18-17--------|----17-21-22--24--29--|
B|-17-----------------17\14-|-17-------------------|
G|--------------------------|----------------------|
D|--------------------------|----------------------|
A|--------------------------|----------------------|
E|--------------------------|----------------------|


e|---------------|--------------|---------------|-----------------------|
B|---------------|--------------|---------------|-----------------------|
G|---5-----------|---5----------|---5-----------|-5h7-5-----------------|
D|-----7-5---5-7-|-----7-5---5~-|-----7-5---5-7-|-------7-5-7-5---------|
A|---------7-----|---------7----|---------7-----|---------------7-5-----|
E|-5-------------|-5------------|-5-------------|-------------------8-7-|


i have the other solo's to but i'm to lazy to type them out.. i'll post them eventually
            
Hard to play? Try these video lessons and learn fast. | Correct




comments powered by Disqus
↑ Back to top | Tablatures and chords are parodies/interpretations of the original songs. You may use it for private study, scholarship, research or language learning purposes only