>
 >
 >
Pit

Pit Bass Tabs

Moe - Pit chords, tabs, tablatures, lyrics

Guitar lessons | Add/correct | Request | Top 50 tabs Artists:  A B C D E F G H I J K L M N O P Q R S T U V W X Y Z 0-9

Pit Bass Tabs – Moe

CD, Sheet music, Poster

Do you like Pit? Share with your friends now
Bass TabsTabs
---------------------------------------------------------------------------
---------------------------------------------------------------------------

Tuning: EADG


INTRO (0:00-0:02)
G|-0h2-0---------|
D|-------2-0-----|
A|---------------|
E|-----------3-2-|


VERSE, pt. 1 (0:03-0:30)
G|--------------------------------------------0h2-0-----------------|
D|---/5-2-------2---/5-2---------/5-2-------2-------2-0-2-0---------|
A|--------5-2-5----------5-2-5--------5-2-5-----------------2-0-----| x3
E|-0--------------0------------0--------------------------------3-2-|


VERSE, pt. 2 (0:31-0:47)
G|--------------------------------------------------------------------|
D|--------------------------------------------------------------------|
A|-5-5-5-5--4-4-4-4-----------2-2-2-2--5-5-5-5--4-4-4-4-----------2-2-|
E|-------------------3-3-3-3-----------------------------3-3-3-3------|


0:48-0:50 REPEAT INTRO
0:51-1:19 REPEAT VERSE, pt. 1
1:20-1:37 REPEAT VERSE, pt. 2


INTERLUDE, pt. 1 (1:38-1:58)
G|-----3---------------3---------|
D|-------5-3---3-5-------5-3---3-|
A|-1---------5-----1---------5---| x4
E|---3---------------3-----------|

1:59-2:18
G|-----------------------------------|
D|---3-----1---------3-----1---------|
A|-----3-2---3-2-1-----3-2---3-2-1---| x2
E|-1---------------1---------------4-|

2:19-2:36
G|-----3---------------3---------|
D|-------5-3---3-5-------5-3---3-|
A|-1---------5-----1---------5---| x4
E|---3---------------3-----------|


INTERLUDE, pt. 2 (2:37-2:57)
G|-------------------------------------------3h5-3-----------------|
D|---/8-5-------5---/8-5--------/8-5-------5-------5-3-5-3---------|
A|--------8-5-8----------8-5-8-------8-5-8-----------------5-3-----| x2
E|-3--------------3------------3-------------------------------6-5-|

2:58-3:15
G|-----5---------------5---------|
D|-------7-5--5-7--------7-5---5-|
A|-3--------7-----3----------7---| x4
E|---5---------------5-----------|


INTERLUDE, pt. 3 (3:16-3:33)
G|-----------------------------------------------------5h7-5-----------------|
D|---/10-7---------7---/10-7-----------/10-7-----------------7-5-7-5---------|
A|---------10-7-10-----------10-7-10---------10-7-10-7---------------7-5-----|
E|-5-----------------5---------------5-----------------------------------8-7-|

G|-----------------------------------------------------------|
D|---/10-7---------7---/10-7-----------/10-7-----------10-10-|
A|---------10-7-10-----------10-7-10---------10-7-10-7-------|
E|-5-----------------5---------------5-----------------------|


3:34-3:35 REPEAT INTRO
3:36-4:52 REPEAT VERSE, pt. 1


4:53-END
G|----|
D|----|
A|----|
E|-0~-|



| .  palm mute
| "  tremolo pick
| *  pinch harmonic
| ~  let note ring
| /  slide up
| \  slide down
| h  hammer-on
| p  pull-off
| v  vibrato
| +  natural harmonic
| x  mute note
=============================================================





Comments


Popular Moe tabs & chords
Okayalright Bass Tabs
Okayalright 2 Bass Tabs
St Augestine Chords
Down Boy Tabs
It Tabs
Rebubula Tabs
Seat Of My Pants Tabs
Spine Of A Dog Tabs
St. Augustine Tabs
St Augestine Ukulele


Song lyrics



↑ Back to top | Tablatures and chords are parodies/interpretations of the original songs. You may use it for private study, scholarship, research or language learning purposes only
© 2014 AZChords.com Contact us | Privacy policy | DMCA | Add/correct tabs | Request tabs | Top 50 tabs