» » »

Moe, Okayalright Bass tabs (ver.3)

Artists:  A B C D E F G H I J K L M N O P Q R S T U V W X Y Z # 

Okayalright Bass tabs (ver.3)

Moe Tabs
Rating:
0/5 (0 votes)
Okayalright lessons Tabs too difficult? Try these video lessons and learn fast
                moe. - Okayalright


Intro
G ---------------------------------------------------------------------|
D ---------------------------------3----3------------------------------|
A --------5~------------------------3----3-----------------------------|
E -3~----------------6-5-3~--------------------------------------------|


G----------------------------------------------------------------------|
D------------------------------------3----3----------------------------|
A --------5~---------------------------3----3--------2-5--2-5----------|
E -3~----------------6-5-3~------------------------3-----3-----3-3-----|


Verse
G ---------------------------------------------------------------------|
D ---------------------------------------------------------------------|
A ----------3-3--------------2-5---2-5---------------------------------|
E -1-1-------------3-3-----3-----3-----3-3-----------------------------|


Chorus
			    (x2)
G----------------------------------|------------------------------------|
D----------------------------------|------------------------------------|
A ---------3-3---------------------|----------3-3---------2-5---2-5-----|
E -1-1-----------3-3---3-3---------|-1-1----------3-3---3-----3-----3-3-|


Verse
G ---------------------------------------------------------------------|
D ---------------------------------------------------------------------|
A ----------3-3--------------2-5---2-5---------------------------------|
E -1-1-------------3-3-----3-----3-----3-3-----------------------------|

Chorus
			    (x3)
G----------------------------------|------------------------------------|
D----------------------------------|------------------------------------|
A ---------3-3---------------------|----------3-3---------2-5---2-5-----|
E -1-1-----------3-3---3-3---------|-1-1----------3-3---3-----3-----3-3-|

Bridge
G -------------------------------------------------------------------|
D ---------------------------------------------3----3----------------|
A ---2-5-------------5--------------------------3----3---------------|
E -3-------------2-5------------6-5-3-3------------------------------|
            

comments powered by Disqus
↑ Back to top | Moe Bass for Okayalright. Lyrics for acoustic guitar and electric guitar. Tablatures and chords are parodies/interpretations of the original songs. You may use it for private study, scholarship, research or language learning purposes only