» » »

32 Things Chords (ver.1)

Artists:  A B C D E F G H I J K L M N O P Q R S T U V W X Y Z # 

32 Things Chords (ver.1)

Moe
Rating:
0/5 (0 votes)

Tabs too difficult? Try these video lessons and learn fast.
                    p   s p s p p
g-------x-3-------|
d---3h5-x---0-3-5-|  Really cool intro riff
a-------x---------|  "the second pop on the third fret on the d string is
e-------x---------|   sort of muted"
  ss pp p          s
g-------6p5-5/6/7--x-6/7-6/7-5/6--|
d----5x------------x--------------|  Cool Bridge thing
a-----------3/4/5--x-4/5-4/5-3/4--|  "double pluck the slides"
e-3x------------------------------|


g-----------------------|
d---5-----3---3---------|  other cool bridge thing
a-----5-3---3---5-4-----|  "non-slap"
e-3---------------------|

g--------------|
d--------------|  This over and over again at the end
a--------------|  "play it kind of fast and you can slap it if you want"
e-3-3-0-5------|

  this song is mostly in g blues if you want to make variations or figure
  out the ones in the song

  now there  is finally a 32 things bass tab on the internet so...
  you are welcome

  Submitted by Nate Matulis of the FUNKtion
            
Tabs too difficult? Try these video lessons and learn fast.




comments powered by Disqus
↑ Back to top | Tablatures and chords are parodies/interpretations of the original songs. You may use it for private study, scholarship, research or language learning purposes only